ISO-10303-21;
HEADER;
FILE_DESCRIPTION (( 'STEP AP203' ),
    '1' );
FILE_NAME ('GSK-110-PB.STEP',
    '2025-08-26T18:53:18',
    ( '' ),
    ( '' ),
    'SwSTEP 2.0',
    'SolidWorks 2018',
    '' );
FILE_SCHEMA (( 'CONFIG_CONTROL_DESIGN' ));
ENDSEC;

DATA;
#1 = CC_DESIGN_SECURITY_CLASSIFICATION ( #12, ( #100 ) ) ;
#2 = PERSON_AND_ORGANIZATION ( #79, #85 ) ;
#3 = EDGE_LOOP ( 'NONE', ( #214, #179 ) ) ;
#4 = CARTESIAN_POINT ( 'NONE',  ( 0.2655000000000000138, 3.251437251736222961E-17, 0.000000000000000000 ) ) ;
#5 = DATE_AND_TIME ( #126, #209 ) ;
#6 = DIRECTION ( 'NONE',  ( -1.000000000000000000, 0.000000000000000000, 0.000000000000000000 ) ) ;
#7 = AXIS2_PLACEMENT_3D ( 'NONE', #216, #202, #48 ) ;
#8 = ADVANCED_FACE ( 'NONE', ( #235 ), #118, .F. ) ;
#9 = MECHANICAL_CONTEXT ( 'NONE', #241, 'mechanical' ) ;
#10 = CARTESIAN_POINT ( 'NONE',  ( 0.000000000000000000, 0.000000000000000000, 0.000000000000000000 ) ) ;
#11 = DIRECTION ( 'NONE',  ( -0.000000000000000000, -0.000000000000000000, -1.000000000000000000 ) ) ;
#12 = SECURITY_CLASSIFICATION ( '', '', #58 ) ;
#13 = COORDINATED_UNIVERSAL_TIME_OFFSET ( 5, 0, .BEHIND. ) ;
#14 = LINE ( 'NONE', #73, #91 ) ;
#15 = AXIS2_PLACEMENT_3D ( 'NONE', #67, #197, #199 ) ;
#16 = PERSON_AND_ORGANIZATION_ROLE ( 'design_supplier' ) ;
#17 = LOCAL_TIME ( 14, 53, 18.00000000000000000, #13 ) ;
#18 = ORIENTED_EDGE ( 'NONE', *, *, #187, .T. ) ;
#19 = AXIS2_PLACEMENT_3D ( 'NONE', #72, #225, #71 ) ;
#20 = CALENDAR_DATE ( 2025, 26, 8 ) ;
#21 = CIRCLE ( 'NONE', #82, 0.1559999999999999998 ) ;
#22 = VERTEX_POINT ( 'NONE', #139 ) ;
#23 = AXIS2_PLACEMENT_3D ( 'NONE', #27, #183, #163 ) ;
#24 = PLANE ( 'NONE',  #68 ) ;
#25 = VERTEX_POINT ( 'NONE', #233 ) ;
#26 = AXIS2_PLACEMENT_3D ( 'NONE', #208, #182, #203 ) ;
#27 = CARTESIAN_POINT ( 'NONE',  ( 0.000000000000000000, 0.000000000000000000, 0.06700000000000000400 ) ) ;
#28 = CIRCLE ( 'NONE', #7, 0.2655000000000000138 ) ;
#29 = ORIENTED_EDGE ( 'NONE', *, *, #148, .F. ) ;
#30 = CARTESIAN_POINT ( 'NONE',  ( 0.2655000000000000138, 3.251437251736222961E-17, 0.06700000000000000400 ) ) ;
#31 =( NAMED_UNIT ( * ) PLANE_ANGLE_UNIT ( ) SI_UNIT ( $, .RADIAN. ) );
#32 = CC_DESIGN_DATE_AND_TIME_ASSIGNMENT ( #54, #172, ( #12 ) ) ;
#33 = ADVANCED_FACE ( 'NONE', ( #155 ), #251, .T. ) ;
#34 = APPROVAL_DATE_TIME ( #103, #150 ) ;
#35 = APPLICATION_CONTEXT ( 'configuration controlled 3d designs of mechanical parts and assemblies' ) ;
#36 = VECTOR ( 'NONE', #52, 39.37007874015748143 ) ;
#37 = CC_DESIGN_APPROVAL ( #150, ( #12 ) ) ;
#38 = VERTEX_POINT ( 'NONE', #124 ) ;
#39 = DATE_AND_TIME ( #20, #112 ) ;
#40 = LINE ( 'NONE', #158, #149 ) ;
#41 = AXIS2_PLACEMENT_3D ( 'NONE', #116, #11, #69 ) ;
#42 = FACE_BOUND ( 'NONE', #132, .T. ) ;
#43 = ORIENTED_EDGE ( 'NONE', *, *, #187, .F. ) ;
#44 = COORDINATED_UNIVERSAL_TIME_OFFSET ( 5, 0, .BEHIND. ) ;
#45 = DIRECTION ( 'NONE',  ( 0.000000000000000000, 0.000000000000000000, 1.000000000000000000 ) ) ;
#46 = DIRECTION ( 'NONE',  ( -0.000000000000000000, -0.000000000000000000, -1.000000000000000000 ) ) ;
#47 =( GEOMETRIC_REPRESENTATION_CONTEXT ( 3 ) GLOBAL_UNCERTAINTY_ASSIGNED_CONTEXT ( ( #201 ) ) GLOBAL_UNIT_ASSIGNED_CONTEXT ( ( #56, #31, #115 ) ) REPRESENTATION_CONTEXT ( 'NONE', 'WORKASPACE' ) );
#48 = DIRECTION ( 'NONE',  ( 1.000000000000000000, 0.000000000000000000, 0.000000000000000000 ) ) ;
#49 = CARTESIAN_POINT ( 'NONE',  ( -0.2655000000000000138, 0.000000000000000000, 0.06700000000000000400 ) ) ;
#50 = ORIENTED_EDGE ( 'NONE', *, *, #105, .F. ) ;
#51 = DIRECTION ( 'NONE',  ( -0.000000000000000000, -0.000000000000000000, -1.000000000000000000 ) ) ;
#52 = DIRECTION ( 'NONE',  ( -0.000000000000000000, -0.000000000000000000, -1.000000000000000000 ) ) ;
#53 = DIRECTION ( 'NONE',  ( 1.000000000000000000, 0.000000000000000000, 0.000000000000000000 ) ) ;
#54 = DATE_AND_TIME ( #117, #205 ) ;
#55 = FACE_OUTER_BOUND ( 'NONE', #3, .T. ) ;
#56 =( CONVERSION_BASED_UNIT ( 'INCH', #141 ) LENGTH_UNIT ( ) NAMED_UNIT ( #165 ) );
#57 = AXIS2_PLACEMENT_3D ( 'NONE', #87, #217, #234 ) ;
#58 = SECURITY_CLASSIFICATION_LEVEL ( 'unclassified' ) ;
#59 = ORIENTED_EDGE ( 'NONE', *, *, #97, .T. ) ;
#60 = MANIFOLD_SOLID_BREP ( 'Boss-Extrude1', #176 ) ;
#61 = APPROVAL ( #143, 'UNSPECIFIED' ) ;
#62 = COORDINATED_UNIVERSAL_TIME_OFFSET ( 5, 0, .BEHIND. ) ;
#63 = AXIS2_PLACEMENT_3D ( 'NONE', #92, #236, #221 ) ;
#64 = DIRECTION ( 'NONE',  ( -0.000000000000000000, -0.000000000000000000, -1.000000000000000000 ) ) ;
#65 = CIRCLE ( 'NONE', #191, 0.2655000000000000138 ) ;
#66 = VERTEX_POINT ( 'NONE', #4 ) ;
#67 = CARTESIAN_POINT ( 'NONE',  ( 0.000000000000000000, 0.000000000000000000, 0.000000000000000000 ) ) ;
#68 = AXIS2_PLACEMENT_3D ( 'NONE', #180, #45, #144 ) ;
#69 = DIRECTION ( 'NONE',  ( -1.000000000000000000, 0.000000000000000000, 0.000000000000000000 ) ) ;
#70 = PERSON_AND_ORGANIZATION ( #79, #85 ) ;
#71 = DIRECTION ( 'NONE',  ( 1.000000000000000000, 0.000000000000000000, 0.000000000000000000 ) ) ;
#72 = CARTESIAN_POINT ( 'NONE',  ( 0.000000000000000000, 0.000000000000000000, 0.06700000000000000400 ) ) ;
#73 = CARTESIAN_POINT ( 'NONE',  ( -0.1559999999999999998, 0.000000000000000000, 0.06700000000000000400 ) ) ;
#74 = CIRCLE ( 'NONE', #26, 0.1559999999999999998 ) ;
#75 = ORIENTED_EDGE ( 'NONE', *, *, #88, .T. ) ;
#76 = PERSON_AND_ORGANIZATION_ROLE ( 'classification_officer' ) ;
#77 = EDGE_CURVE ( 'NONE', #104, #244, #40, .T. ) ;
#78 = ORIENTED_EDGE ( 'NONE', *, *, #97, .F. ) ;
#79 = PERSON ( 'UNSPECIFIED', 'UNSPECIFIED', 'UNSPECIFIED', ('UNSPECIFIED'), ('UNSPECIFIED'), ('UNSPECIFIED') ) ;
#80 = CC_DESIGN_PERSON_AND_ORGANIZATION_ASSIGNMENT ( #159, #76, ( #12 ) ) ;
#81 = ORIENTED_EDGE ( 'NONE', *, *, #249, .F. ) ;
#82 = AXIS2_PLACEMENT_3D ( 'NONE', #90, #220, #137 ) ;
#83 = ORIENTED_EDGE ( 'NONE', *, *, #151, .T. ) ;
#84 = APPROVAL ( #111, 'UNSPECIFIED' ) ;
#85 = ORGANIZATION ( 'UNSPECIFIED', 'UNSPECIFIED', '' ) ;
#86 = VERTEX_POINT ( 'NONE', #161 ) ;
#87 = CARTESIAN_POINT ( 'NONE',  ( 0.000000000000000000, 0.000000000000000000, 0.000000000000000000 ) ) ;
#88 = EDGE_CURVE ( 'NONE', #66, #244, #28, .T. ) ;
#89 = DESIGN_CONTEXT ( 'detailed design', #35, 'design' ) ;
#90 = CARTESIAN_POINT ( 'NONE',  ( 0.000000000000000000, 0.000000000000000000, 0.000000000000000000 ) ) ;
#91 = VECTOR ( 'NONE', #51, 39.37007874015748143 ) ;
#92 = CARTESIAN_POINT ( 'NONE',  ( 0.000000000000000000, 0.000000000000000000, 0.06700000000000000400 ) ) ;
#93 = EDGE_CURVE ( 'NONE', #244, #66, #210, .T. ) ;
#94 = ADVANCED_FACE ( 'NONE', ( #185, #42 ), #157, .F. ) ;
#95 = APPLICATION_PROTOCOL_DEFINITION ( 'international standard', 'config_control_design', 1994, #241 ) ;
#96 = ADVANCED_BREP_SHAPE_REPRESENTATION ( 'GSK-110-PB', ( #60, #189 ), #47 ) ;
#97 = EDGE_CURVE ( 'NONE', #38, #25, #21, .T. ) ;
#98 =( LENGTH_UNIT ( ) NAMED_UNIT ( * ) SI_UNIT ( $, .METRE. ) );
#99 = APPROVAL_ROLE ( '' ) ;
#100 = PRODUCT_DEFINITION_FORMATION_WITH_SPECIFIED_SOURCE ( 'ANY', '', #152, .NOT_KNOWN. ) ;
#101 = ORIENTED_EDGE ( 'NONE', *, *, #136, .F. ) ;
#102 = PERSON_AND_ORGANIZATION_ROLE ( 'creator' ) ;
#103 = DATE_AND_TIME ( #147, #226 ) ;
#104 = VERTEX_POINT ( 'NONE', #49 ) ;
#105 = EDGE_CURVE ( 'NONE', #86, #38, #134, .T. ) ;
#106 = APPROVAL_PERSON_ORGANIZATION ( #247, #150, #188 ) ;
#107 = EDGE_LOOP ( 'NONE', ( #113, #171 ) ) ;
#108 = AXIS2_PLACEMENT_3D ( 'NONE', #10, #184, #53 ) ;
#109 = CARTESIAN_POINT ( 'NONE',  ( 0.1559999999999999998, 1.910449006669871087E-17, 0.06700000000000000400 ) ) ;
#110 = ADVANCED_FACE ( 'NONE', ( #55, #192 ), #24, .T. ) ;
#111 = APPROVAL_STATUS ( 'not_yet_approved' ) ;
#112 = LOCAL_TIME ( 14, 53, 18.00000000000000000, #164 ) ;
#113 = ORIENTED_EDGE ( 'NONE', *, *, #93, .F. ) ;
#114 = CARTESIAN_POINT ( 'NONE',  ( 0.000000000000000000, 0.000000000000000000, 0.06700000000000000400 ) ) ;
#115 =( NAMED_UNIT ( * ) SI_UNIT ( $, .STERADIAN. ) SOLID_ANGLE_UNIT ( ) );
#116 = CARTESIAN_POINT ( 'NONE',  ( 0.000000000000000000, 0.000000000000000000, 0.06700000000000000400 ) ) ;
#117 = CALENDAR_DATE ( 2025, 26, 8 ) ;
#118 = CYLINDRICAL_SURFACE ( 'NONE', #211, 0.1559999999999999998 ) ;
#119 = APPROVAL_ROLE ( '' ) ;
#120 = PRODUCT_DEFINITION ( 'UNKNOWN', '', #100, #89 ) ;
#121 = ORIENTED_EDGE ( 'NONE', *, *, #148, .T. ) ;
#122 = CIRCLE ( 'NONE', #108, 0.1559999999999999998 ) ;
#123 = EDGE_LOOP ( 'NONE', ( #83, #193, #222, #43 ) ) ;
#124 = CARTESIAN_POINT ( 'NONE',  ( 0.1559999999999999998, 1.910449006669871087E-17, 0.000000000000000000 ) ) ;
#125 = PRODUCT_RELATED_PRODUCT_CATEGORY ( 'detail', '', ( #152 ) ) ;
#126 = CALENDAR_DATE ( 2025, 26, 8 ) ;
#127 = DIRECTION ( 'NONE',  ( 0.000000000000000000, 0.000000000000000000, 1.000000000000000000 ) ) ;
#128 = EDGE_LOOP ( 'NONE', ( #195, #229, #75, #252 ) ) ;
#129 = AXIS2_PLACEMENT_3D ( 'NONE', #198, #135, #6 ) ;
#130 = DIRECTION ( 'NONE',  ( 0.000000000000000000, 0.000000000000000000, 1.000000000000000000 ) ) ;
#131 = CYLINDRICAL_SURFACE ( 'NONE', #23, 0.2655000000000000138 ) ;
#132 = EDGE_LOOP ( 'NONE', ( #166, #59 ) ) ;
#133 = APPROVAL_DATE_TIME ( #39, #61 ) ;
#134 = LINE ( 'NONE', #109, #243 ) ;
#135 = DIRECTION ( 'NONE',  ( -0.000000000000000000, -0.000000000000000000, -1.000000000000000000 ) ) ;
#136 = EDGE_CURVE ( 'NONE', #231, #66, #175, .T. ) ;
#137 = DIRECTION ( 'NONE',  ( 1.000000000000000000, 0.000000000000000000, 0.000000000000000000 ) ) ;
#138 = CARTESIAN_POINT ( 'NONE',  ( 0.000000000000000000, 0.000000000000000000, 0.06700000000000000400 ) ) ;
#139 = CARTESIAN_POINT ( 'NONE',  ( -0.1559999999999999998, 0.000000000000000000, 0.06700000000000000400 ) ) ;
#140 = EDGE_CURVE ( 'NONE', #25, #38, #122, .T. ) ;
#141 = LENGTH_MEASURE_WITH_UNIT ( LENGTH_MEASURE( 0.02539999999999999897 ), #98 );
#142 = ORIENTED_EDGE ( 'NONE', *, *, #151, .F. ) ;
#143 = APPROVAL_STATUS ( 'not_yet_approved' ) ;
#144 = DIRECTION ( 'NONE',  ( 1.000000000000000000, 0.000000000000000000, -0.000000000000000000 ) ) ;
#145 = ADVANCED_FACE ( 'NONE', ( #154 ), #131, .T. ) ;
#146 = CARTESIAN_POINT ( 'NONE',  ( -0.2655000000000000138, 0.000000000000000000, 0.000000000000000000 ) ) ;
#147 = CALENDAR_DATE ( 2025, 26, 8 ) ;
#148 = EDGE_CURVE ( 'NONE', #86, #22, #74, .T. ) ;
#149 = VECTOR ( 'NONE', #178, 39.37007874015748143 ) ;
#150 = APPROVAL ( #246, 'UNSPECIFIED' ) ;
#151 = EDGE_CURVE ( 'NONE', #22, #86, #248, .T. ) ;
#152 = PRODUCT ( 'GSK-110-PB', 'GSK-110-PB', '', ( #9 ) ) ;
#153 = DATE_AND_TIME ( #232, #17 ) ;
#154 = FACE_OUTER_BOUND ( 'NONE', #128, .T. ) ;
#155 = FACE_OUTER_BOUND ( 'NONE', #169, .T. ) ;
#156 = APPROVAL_DATE_TIME ( #5, #84 ) ;
#157 = PLANE ( 'NONE',  #57 ) ;
#158 = CARTESIAN_POINT ( 'NONE',  ( -0.2655000000000000138, 0.000000000000000000, 0.06700000000000000400 ) ) ;
#159 = PERSON_AND_ORGANIZATION ( #79, #85 ) ;
#160 = CIRCLE ( 'NONE', #19, 0.2655000000000000138 ) ;
#161 = CARTESIAN_POINT ( 'NONE',  ( 0.1559999999999999998, 1.910449006669871087E-17, 0.06700000000000000400 ) ) ;
#162 = CC_DESIGN_PERSON_AND_ORGANIZATION_ASSIGNMENT ( #170, #223, ( #152 ) ) ;
#163 = DIRECTION ( 'NONE',  ( -1.000000000000000000, 0.000000000000000000, 0.000000000000000000 ) ) ;
#164 = COORDINATED_UNIVERSAL_TIME_OFFSET ( 5, 0, .BEHIND. ) ;
#165 = DIMENSIONAL_EXPONENTS ( 1.000000000000000000, 0.000000000000000000, 0.000000000000000000, 0.000000000000000000, 0.000000000000000000, 0.000000000000000000, 0.000000000000000000 ) ;
#166 = ORIENTED_EDGE ( 'NONE', *, *, #140, .T. ) ;
#167 = CARTESIAN_POINT ( 'NONE',  ( 0.2655000000000000138, 3.251437251736222961E-17, 0.06700000000000000400 ) ) ;
#168 = APPROVAL_PERSON_ORGANIZATION ( #218, #84, #99 ) ;
#169 = EDGE_LOOP ( 'NONE', ( #101, #81, #207, #230 ) ) ;
#170 = PERSON_AND_ORGANIZATION ( #79, #85 ) ;
#171 = ORIENTED_EDGE ( 'NONE', *, *, #88, .F. ) ;
#172 = DATE_TIME_ROLE ( 'classification_date' ) ;
#173 = CC_DESIGN_PERSON_AND_ORGANIZATION_ASSIGNMENT ( #212, #102, ( #100 ) ) ;
#174 = PRODUCT_DEFINITION_SHAPE ( 'NONE', 'NONE',  #120 ) ;
#175 = LINE ( 'NONE', #167, #36 ) ;
#176 = CLOSED_SHELL ( 'NONE', ( #8, #145, #110, #94, #33, #206 ) ) ;
#177 = CC_DESIGN_APPROVAL ( #84, ( #120 ) ) ;
#178 = DIRECTION ( 'NONE',  ( -0.000000000000000000, -0.000000000000000000, -1.000000000000000000 ) ) ;
#179 = ORIENTED_EDGE ( 'NONE', *, *, #245, .T. ) ;
#180 = CARTESIAN_POINT ( 'NONE',  ( 0.000000000000000000, 0.000000000000000000, 0.06700000000000000400 ) ) ;
#181 = DIRECTION ( 'NONE',  ( 1.000000000000000000, 0.000000000000000000, 0.000000000000000000 ) ) ;
#182 = DIRECTION ( 'NONE',  ( 0.000000000000000000, 0.000000000000000000, 1.000000000000000000 ) ) ;
#183 = DIRECTION ( 'NONE',  ( -0.000000000000000000, -0.000000000000000000, -1.000000000000000000 ) ) ;
#184 = DIRECTION ( 'NONE',  ( 0.000000000000000000, 0.000000000000000000, 1.000000000000000000 ) ) ;
#185 = FACE_OUTER_BOUND ( 'NONE', #107, .T. ) ;
#186 = APPLICATION_PROTOCOL_DEFINITION ( 'international standard', 'config_control_design', 1994, #35 ) ;
#187 = EDGE_CURVE ( 'NONE', #22, #25, #14, .T. ) ;
#188 = APPROVAL_ROLE ( '' ) ;
#189 = AXIS2_PLACEMENT_3D ( 'NONE', #238, #127, #181 ) ;
#190 = EDGE_LOOP ( 'NONE', ( #142, #29 ) ) ;
#191 = AXIS2_PLACEMENT_3D ( 'NONE', #114, #130, #224 ) ;
#192 = FACE_BOUND ( 'NONE', #190, .T. ) ;
#193 = ORIENTED_EDGE ( 'NONE', *, *, #105, .T. ) ;
#194 = COORDINATED_UNIVERSAL_TIME_OFFSET ( 5, 0, .BEHIND. ) ;
#195 = ORIENTED_EDGE ( 'NONE', *, *, #245, .F. ) ;
#196 = DIRECTION ( 'NONE',  ( -1.000000000000000000, 0.000000000000000000, 0.000000000000000000 ) ) ;
#197 = DIRECTION ( 'NONE',  ( 0.000000000000000000, 0.000000000000000000, 1.000000000000000000 ) ) ;
#198 = CARTESIAN_POINT ( 'NONE',  ( 0.000000000000000000, 0.000000000000000000, 0.06700000000000000400 ) ) ;
#199 = DIRECTION ( 'NONE',  ( 1.000000000000000000, 0.000000000000000000, 0.000000000000000000 ) ) ;
#200 = EDGE_LOOP ( 'NONE', ( #50, #121, #18, #78 ) ) ;
#201 = UNCERTAINTY_MEASURE_WITH_UNIT (LENGTH_MEASURE( 1.000000000000000082E-05 ), #56, 'distance_accuracy_value', 'NONE');
#202 = DIRECTION ( 'NONE',  ( 0.000000000000000000, 0.000000000000000000, 1.000000000000000000 ) ) ;
#203 = DIRECTION ( 'NONE',  ( 1.000000000000000000, 0.000000000000000000, 0.000000000000000000 ) ) ;
#204 = CC_DESIGN_PERSON_AND_ORGANIZATION_ASSIGNMENT ( #70, #227, ( #120 ) ) ;
#205 = LOCAL_TIME ( 14, 53, 18.00000000000000000, #44 ) ;
#206 = ADVANCED_FACE ( 'NONE', ( #240 ), #228, .F. ) ;
#207 = ORIENTED_EDGE ( 'NONE', *, *, #77, .T. ) ;
#208 = CARTESIAN_POINT ( 'NONE',  ( 0.000000000000000000, 0.000000000000000000, 0.06700000000000000400 ) ) ;
#209 = LOCAL_TIME ( 14, 53, 18.00000000000000000, #62 ) ;
#210 = CIRCLE ( 'NONE', #15, 0.2655000000000000138 ) ;
#211 = AXIS2_PLACEMENT_3D ( 'NONE', #138, #64, #196 ) ;
#212 = PERSON_AND_ORGANIZATION ( #79, #85 ) ;
#213 = APPROVAL_PERSON_ORGANIZATION ( #250, #61, #119 ) ;
#214 = ORIENTED_EDGE ( 'NONE', *, *, #249, .T. ) ;
#215 = CC_DESIGN_DATE_AND_TIME_ASSIGNMENT ( #153, #242, ( #120 ) ) ;
#216 = CARTESIAN_POINT ( 'NONE',  ( 0.000000000000000000, 0.000000000000000000, 0.000000000000000000 ) ) ;
#217 = DIRECTION ( 'NONE',  ( 0.000000000000000000, 0.000000000000000000, 1.000000000000000000 ) ) ;
#218 = PERSON_AND_ORGANIZATION ( #79, #85 ) ;
#219 = CC_DESIGN_APPROVAL ( #61, ( #100 ) ) ;
#220 = DIRECTION ( 'NONE',  ( 0.000000000000000000, 0.000000000000000000, 1.000000000000000000 ) ) ;
#221 = DIRECTION ( 'NONE',  ( 1.000000000000000000, 0.000000000000000000, 0.000000000000000000 ) ) ;
#222 = ORIENTED_EDGE ( 'NONE', *, *, #140, .F. ) ;
#223 = PERSON_AND_ORGANIZATION_ROLE ( 'design_owner' ) ;
#224 = DIRECTION ( 'NONE',  ( 1.000000000000000000, 0.000000000000000000, 0.000000000000000000 ) ) ;
#225 = DIRECTION ( 'NONE',  ( 0.000000000000000000, 0.000000000000000000, 1.000000000000000000 ) ) ;
#226 = LOCAL_TIME ( 14, 53, 18.00000000000000000, #194 ) ;
#227 = PERSON_AND_ORGANIZATION_ROLE ( 'creator' ) ;
#228 = CYLINDRICAL_SURFACE ( 'NONE', #41, 0.1559999999999999998 ) ;
#229 = ORIENTED_EDGE ( 'NONE', *, *, #136, .T. ) ;
#230 = ORIENTED_EDGE ( 'NONE', *, *, #93, .T. ) ;
#231 = VERTEX_POINT ( 'NONE', #30 ) ;
#232 = CALENDAR_DATE ( 2025, 26, 8 ) ;
#233 = CARTESIAN_POINT ( 'NONE',  ( -0.1559999999999999998, 0.000000000000000000, 0.000000000000000000 ) ) ;
#234 = DIRECTION ( 'NONE',  ( 1.000000000000000000, 0.000000000000000000, -0.000000000000000000 ) ) ;
#235 = FACE_OUTER_BOUND ( 'NONE', #123, .T. ) ;
#236 = DIRECTION ( 'NONE',  ( 0.000000000000000000, 0.000000000000000000, 1.000000000000000000 ) ) ;
#237 = CC_DESIGN_PERSON_AND_ORGANIZATION_ASSIGNMENT ( #2, #16, ( #100 ) ) ;
#238 = CARTESIAN_POINT ( 'NONE',  ( 0.000000000000000000, 0.000000000000000000, 0.000000000000000000 ) ) ;
#239 = SHAPE_DEFINITION_REPRESENTATION ( #174, #96 ) ;
#240 = FACE_OUTER_BOUND ( 'NONE', #200, .T. ) ;
#241 = APPLICATION_CONTEXT ( 'configuration controlled 3d designs of mechanical parts and assemblies' ) ;
#242 = DATE_TIME_ROLE ( 'creation_date' ) ;
#243 = VECTOR ( 'NONE', #46, 39.37007874015748143 ) ;
#244 = VERTEX_POINT ( 'NONE', #146 ) ;
#245 = EDGE_CURVE ( 'NONE', #231, #104, #65, .T. ) ;
#246 = APPROVAL_STATUS ( 'not_yet_approved' ) ;
#247 = PERSON_AND_ORGANIZATION ( #79, #85 ) ;
#248 = CIRCLE ( 'NONE', #63, 0.1559999999999999998 ) ;
#249 = EDGE_CURVE ( 'NONE', #104, #231, #160, .T. ) ;
#250 = PERSON_AND_ORGANIZATION ( #79, #85 ) ;
#251 = CYLINDRICAL_SURFACE ( 'NONE', #129, 0.2655000000000000138 ) ;
#252 = ORIENTED_EDGE ( 'NONE', *, *, #77, .F. ) ;
ENDSEC;
END-ISO-10303-21;
