ISO-10303-21;
HEADER;
FILE_DESCRIPTION (( 'STEP AP203' ),
    '1' );
FILE_NAME ('GSK-110-T.STEP',
    '2025-08-26T15:17:00',
    ( '' ),
    ( '' ),
    'SwSTEP 2.0',
    'SolidWorks 2018',
    '' );
FILE_SCHEMA (( 'CONFIG_CONTROL_DESIGN' ));
ENDSEC;

DATA;
#1 = AXIS2_PLACEMENT_3D ( 'NONE', #142, #157, #65 ) ;
#2 = DIRECTION ( 'NONE',  ( -1.000000000000000000, -0.000000000000000000, -0.000000000000000000 ) ) ;
#3 = AXIS2_PLACEMENT_3D ( 'NONE', #97, #114, #115 ) ;
#4 = CARTESIAN_POINT ( 'NONE',  ( 0.000000000000000000, 3.233067549749012087E-17, -0.2640000000000000124 ) ) ;
#5 = ORIENTED_EDGE ( 'NONE', *, *, #212, .T. ) ;
#6 = DIRECTION ( 'NONE',  ( 0.000000000000000000, 0.000000000000000000, 1.000000000000000000 ) ) ;
#7 = DIRECTION ( 'NONE',  ( -1.000000000000000000, -0.000000000000000000, -0.000000000000000000 ) ) ;
#8 = EDGE_LOOP ( 'NONE', ( #116, #14 ) ) ;
#9 =( LENGTH_UNIT ( ) NAMED_UNIT ( * ) SI_UNIT ( $, .METRE. ) );
#10 = PERSON_AND_ORGANIZATION_ROLE ( 'design_supplier' ) ;
#11 = DATE_AND_TIME ( #166, #125 ) ;
#12 = APPLICATION_CONTEXT ( 'configuration controlled 3d designs of mechanical parts and assemblies' ) ;
#13 = EDGE_CURVE ( 'NONE', #220, #18, #182, .T. ) ;
#14 = ORIENTED_EDGE ( 'NONE', *, *, #38, .F. ) ;
#15 = AXIS2_PLACEMENT_3D ( 'NONE', #221, #7, #159 ) ;
#16 = APPROVAL_PERSON_ORGANIZATION ( #20, #150, #88 ) ;
#17 = ORIENTED_EDGE ( 'NONE', *, *, #56, .T. ) ;
#18 = VERTEX_POINT ( 'NONE', #43 ) ;
#19 = EDGE_CURVE ( 'NONE', #227, #118, #127, .T. ) ;
#20 = PERSON_AND_ORGANIZATION ( #191, #162 ) ;
#21 = LINE ( 'NONE', #195, #28 ) ;
#22 = CIRCLE ( 'NONE', #154, 0.2640000000000000124 ) ;
#23 = DIRECTION ( 'NONE',  ( 0.000000000000000000, 0.000000000000000000, -1.000000000000000000 ) ) ;
#24 = DIRECTION ( 'NONE',  ( -1.000000000000000000, -0.000000000000000000, -0.000000000000000000 ) ) ;
#25 = DIRECTION ( 'NONE',  ( -1.000000000000000000, -0.000000000000000000, -0.000000000000000000 ) ) ;
#26 = CARTESIAN_POINT ( 'NONE',  ( 0.000000000000000000, 0.1597500000000000309, 0.000000000000000000 ) ) ;
#27 = DATE_AND_TIME ( #206, #79 ) ;
#28 = VECTOR ( 'NONE', #117, 39.37007874015748143 ) ;
#29 = APPLICATION_PROTOCOL_DEFINITION ( 'international standard', 'config_control_design', 1994, #12 ) ;
#30 = FACE_OUTER_BOUND ( 'NONE', #236, .T. ) ;
#31 = DIRECTION ( 'NONE',  ( 0.000000000000000000, 0.000000000000000000, 1.000000000000000000 ) ) ;
#32 = EDGE_LOOP ( 'NONE', ( #215, #55, #165, #151 ) ) ;
#33 = CC_DESIGN_PERSON_AND_ORGANIZATION_ASSIGNMENT ( #244, #201, ( #234 ) ) ;
#34 = PERSON_AND_ORGANIZATION ( #191, #162 ) ;
#35 = EDGE_LOOP ( 'NONE', ( #169, #103, #164, #110 ) ) ;
#36 = CIRCLE ( 'NONE', #163, 0.1597500000000000309 ) ;
#37 = PERSON_AND_ORGANIZATION ( #191, #162 ) ;
#38 = EDGE_CURVE ( 'NONE', #112, #184, #80, .T. ) ;
#39 = CARTESIAN_POINT ( 'NONE',  ( 0.06700000000000001787, 0.000000000000000000, 0.000000000000000000 ) ) ;
#40 = CC_DESIGN_PERSON_AND_ORGANIZATION_ASSIGNMENT ( #63, #226, ( #111 ) ) ;
#41 = DIRECTION ( 'NONE',  ( 0.000000000000000000, 0.000000000000000000, 1.000000000000000000 ) ) ;
#42 = CARTESIAN_POINT ( 'NONE',  ( 0.000000000000000000, 0.000000000000000000, 0.2640000000000000124 ) ) ;
#43 = CARTESIAN_POINT ( 'NONE',  ( 0.06700000000000000400, 0.000000000000000000, 0.2640000000000000124 ) ) ;
#44 = DATE_TIME_ROLE ( 'classification_date' ) ;
#45 = DIRECTION ( 'NONE',  ( 0.000000000000000000, 0.000000000000000000, 1.000000000000000000 ) ) ;
#46 = APPROVAL_ROLE ( '' ) ;
#47 = FACE_OUTER_BOUND ( 'NONE', #35, .T. ) ;
#48 =( NAMED_UNIT ( * ) PLANE_ANGLE_UNIT ( ) SI_UNIT ( $, .RADIAN. ) );
#49 = LENGTH_MEASURE_WITH_UNIT ( LENGTH_MEASURE( 0.02539999999999999897 ), #9 );
#50 = ORIENTED_EDGE ( 'NONE', *, *, #187, .T. ) ;
#51 = DATE_AND_TIME ( #223, #250 ) ;
#52 = ADVANCED_FACE ( 'NONE', ( #30 ), #231, .T. ) ;
#53 = ADVANCED_FACE ( 'NONE', ( #75, #167 ), #241, .F. ) ;
#54 = APPROVAL ( #181, 'UNSPECIFIED' ) ;
#55 = ORIENTED_EDGE ( 'NONE', *, *, #95, .T. ) ;
#56 = EDGE_CURVE ( 'NONE', #71, #72, #173, .T. ) ;
#57 = APPROVAL_PERSON_ORGANIZATION ( #105, #54, #46 ) ;
#58 = DIRECTION ( 'NONE',  ( 0.000000000000000000, 0.000000000000000000, 1.000000000000000000 ) ) ;
#59 = CARTESIAN_POINT ( 'NONE',  ( 0.06700000000000000400, 0.000000000000000000, 0.000000000000000000 ) ) ;
#60 = DIRECTION ( 'NONE',  ( -1.000000000000000000, -0.000000000000000000, -0.000000000000000000 ) ) ;
#61 = ORIENTED_EDGE ( 'NONE', *, *, #19, .F. ) ;
#62 = CARTESIAN_POINT ( 'NONE',  ( 0.000000000000000000, 0.000000000000000000, 0.000000000000000000 ) ) ;
#63 = PERSON_AND_ORGANIZATION ( #191, #162 ) ;
#64 = DIRECTION ( 'NONE',  ( 1.000000000000000000, 0.000000000000000000, 0.000000000000000000 ) ) ;
#65 = DIRECTION ( 'NONE',  ( 0.000000000000000000, 0.000000000000000000, 1.000000000000000000 ) ) ;
#66 = SECURITY_CLASSIFICATION_LEVEL ( 'unclassified' ) ;
#67 = SHAPE_DEFINITION_REPRESENTATION ( #204, #239 ) ;
#68 = APPLICATION_PROTOCOL_DEFINITION ( 'international standard', 'config_control_design', 1994, #183 ) ;
#69 = ORIENTED_EDGE ( 'NONE', *, *, #13, .F. ) ;
#70 = AXIS2_PLACEMENT_3D ( 'NONE', #62, #198, #83 ) ;
#71 = VERTEX_POINT ( 'NONE', #42 ) ;
#72 = VERTEX_POINT ( 'NONE', #4 ) ;
#73 = COORDINATED_UNIVERSAL_TIME_OFFSET ( 5, 0, .BEHIND. ) ;
#74 = LINE ( 'NONE', #100, #185 ) ;
#75 = FACE_OUTER_BOUND ( 'NONE', #174, .T. ) ;
#76 = ADVANCED_FACE ( 'NONE', ( #230 ), #93, .F. ) ;
#77 = AXIS2_PLACEMENT_3D ( 'NONE', #237, #123, #6 ) ;
#78 = EDGE_LOOP ( 'NONE', ( #132, #61, #50, #81 ) ) ;
#79 = LOCAL_TIME ( 11, 17, 0.000000000000000000, #131 ) ;
#80 = CIRCLE ( 'NONE', #15, 0.1597500000000000309 ) ;
#81 = ORIENTED_EDGE ( 'NONE', *, *, #91, .T. ) ;
#82 = DIRECTION ( 'NONE',  ( -1.000000000000000000, -0.000000000000000000, -0.000000000000000000 ) ) ;
#83 = DIRECTION ( 'NONE',  ( 0.000000000000000000, 0.000000000000000000, 1.000000000000000000 ) ) ;
#84 = APPROVAL_DATE_TIME ( #51, #150 ) ;
#85 = CARTESIAN_POINT ( 'NONE',  ( 0.000000000000000000, 0.000000000000000000, 0.1597500000000000309 ) ) ;
#86 = CARTESIAN_POINT ( 'NONE',  ( 0.06700000000000001787, 0.000000000000000000, 0.000000000000000000 ) ) ;
#87 = EDGE_CURVE ( 'NONE', #18, #71, #252, .T. ) ;
#88 = APPROVAL_ROLE ( '' ) ;
#89 = PERSON_AND_ORGANIZATION_ROLE ( 'creator' ) ;
#90 = APPROVAL ( #202, 'UNSPECIFIED' ) ;
#91 = EDGE_CURVE ( 'NONE', #184, #112, #36, .T. ) ;
#92 = COORDINATED_UNIVERSAL_TIME_OFFSET ( 5, 0, .BEHIND. ) ;
#93 = CYLINDRICAL_SURFACE ( 'NONE', #77, 0.1597500000000000309 ) ;
#94 = CC_DESIGN_DATE_AND_TIME_ASSIGNMENT ( #27, #44, ( #216 ) ) ;
#95 = EDGE_CURVE ( 'NONE', #220, #72, #192, .T. ) ;
#96 = CC_DESIGN_APPROVAL ( #90, ( #234 ) ) ;
#97 = CARTESIAN_POINT ( 'NONE',  ( 0.000000000000000000, 0.000000000000000000, 0.000000000000000000 ) ) ;
#98 = FACE_OUTER_BOUND ( 'NONE', #32, .T. ) ;
#99 = CARTESIAN_POINT ( 'NONE',  ( 0.000000000000000000, 3.233067549749012087E-17, -0.2640000000000000124 ) ) ;
#100 = CARTESIAN_POINT ( 'NONE',  ( 0.000000000000000000, 0.000000000000000000, 0.1597500000000000309 ) ) ;
#101 = EDGE_CURVE ( 'NONE', #118, #112, #21, .T. ) ;
#102 = CARTESIAN_POINT ( 'NONE',  ( 0.06700000000000000400, 3.233067549749012087E-17, -0.2640000000000000124 ) ) ;
#103 = ORIENTED_EDGE ( 'NONE', *, *, #101, .T. ) ;
#104 = CARTESIAN_POINT ( 'NONE',  ( 0.000000000000000000, 0.000000000000000000, 0.000000000000000000 ) ) ;
#105 = PERSON_AND_ORGANIZATION ( #191, #162 ) ;
#106 = CC_DESIGN_APPROVAL ( #54, ( #216 ) ) ;
#107 = ORIENTED_EDGE ( 'NONE', *, *, #13, .T. ) ;
#108 = COORDINATED_UNIVERSAL_TIME_OFFSET ( 5, 0, .BEHIND. ) ;
#109 = CC_DESIGN_DATE_AND_TIME_ASSIGNMENT ( #229, #158, ( #234 ) ) ;
#110 = ORIENTED_EDGE ( 'NONE', *, *, #187, .F. ) ;
#111 = PRODUCT ( 'GSK-110-T', 'GSK-110-T', '', ( #126 ) ) ;
#112 = VERTEX_POINT ( 'NONE', #217 ) ;
#113 = APPROVAL_DATE_TIME ( #11, #54 ) ;
#114 = DIRECTION ( 'NONE',  ( -1.000000000000000000, -0.000000000000000000, -0.000000000000000000 ) ) ;
#115 = DIRECTION ( 'NONE',  ( 0.000000000000000000, 0.000000000000000000, 1.000000000000000000 ) ) ;
#116 = ORIENTED_EDGE ( 'NONE', *, *, #91, .F. ) ;
#117 = DIRECTION ( 'NONE',  ( -1.000000000000000000, -0.000000000000000000, -0.000000000000000000 ) ) ;
#118 = VERTEX_POINT ( 'NONE', #196 ) ;
#119 = AXIS2_PLACEMENT_3D ( 'NONE', #104, #145, #143 ) ;
#120 = CARTESIAN_POINT ( 'NONE',  ( 0.06700000000000001787, 0.2640000000000000124, 0.000000000000000000 ) ) ;
#121 = ORIENTED_EDGE ( 'NONE', *, *, #130, .F. ) ;
#122 = PRODUCT_RELATED_PRODUCT_CATEGORY ( 'detail', '', ( #111 ) ) ;
#123 = DIRECTION ( 'NONE',  ( -1.000000000000000000, -0.000000000000000000, -0.000000000000000000 ) ) ;
#124 = CARTESIAN_POINT ( 'NONE',  ( 0.000000000000000000, 0.000000000000000000, 0.000000000000000000 ) ) ;
#125 = LOCAL_TIME ( 11, 17, 0.000000000000000000, #172 ) ;
#126 = MECHANICAL_CONTEXT ( 'NONE', #183, 'mechanical' ) ;
#127 = CIRCLE ( 'NONE', #134, 0.1597500000000000309 ) ;
#128 =( CONVERSION_BASED_UNIT ( 'INCH', #49 ) LENGTH_UNIT ( ) NAMED_UNIT ( #208 ) );
#129 = PRODUCT_DEFINITION_FORMATION_WITH_SPECIFIED_SOURCE ( 'ANY', '', #111, .NOT_KNOWN. ) ;
#130 = EDGE_CURVE ( 'NONE', #18, #220, #22, .T. ) ;
#131 = COORDINATED_UNIVERSAL_TIME_OFFSET ( 5, 0, .BEHIND. ) ;
#132 = ORIENTED_EDGE ( 'NONE', *, *, #101, .F. ) ;
#133 = CC_DESIGN_SECURITY_CLASSIFICATION ( #216, ( #129 ) ) ;
#134 = AXIS2_PLACEMENT_3D ( 'NONE', #86, #222, #246 ) ;
#135 = CALENDAR_DATE ( 2025, 26, 8 ) ;
#136 = CARTESIAN_POINT ( 'NONE',  ( 0.000000000000000000, 0.000000000000000000, 0.2640000000000000124 ) ) ;
#137 = CC_DESIGN_APPROVAL ( #150, ( #129 ) ) ;
#138 = DIRECTION ( 'NONE',  ( 0.000000000000000000, 0.000000000000000000, 1.000000000000000000 ) ) ;
#139 = VECTOR ( 'NONE', #2, 39.37007874015748143 ) ;
#140 = DIRECTION ( 'NONE',  ( -1.000000000000000000, 0.000000000000000000, -0.000000000000000000 ) ) ;
#141 = DATE_AND_TIME ( #188, #193 ) ;
#142 = CARTESIAN_POINT ( 'NONE',  ( 0.06700000000000000400, 0.000000000000000000, 0.000000000000000000 ) ) ;
#143 = DIRECTION ( 'NONE',  ( 1.000000000000000000, 0.000000000000000000, 0.000000000000000000 ) ) ;
#144 =( NAMED_UNIT ( * ) SI_UNIT ( $, .STERADIAN. ) SOLID_ANGLE_UNIT ( ) );
#145 = DIRECTION ( 'NONE',  ( 0.000000000000000000, 0.000000000000000000, 1.000000000000000000 ) ) ;
#146 = DESIGN_CONTEXT ( 'detailed design', #12, 'design' ) ;
#147 =( GEOMETRIC_REPRESENTATION_CONTEXT ( 3 ) GLOBAL_UNCERTAINTY_ASSIGNED_CONTEXT ( ( #232 ) ) GLOBAL_UNIT_ASSIGNED_CONTEXT ( ( #128, #48, #144 ) ) REPRESENTATION_CONTEXT ( 'NONE', 'WORKASPACE' ) );
#148 = AXIS2_PLACEMENT_3D ( 'NONE', #124, #25, #45 ) ;
#149 = ADVANCED_FACE ( 'NONE', ( #242, #168 ), #156, .F. ) ;
#150 = APPROVAL ( #224, 'UNSPECIFIED' ) ;
#151 = ORIENTED_EDGE ( 'NONE', *, *, #87, .F. ) ;
#152 = EDGE_LOOP ( 'NONE', ( #210, #5 ) ) ;
#153 = APPROVAL_DATE_TIME ( #141, #90 ) ;
#154 = AXIS2_PLACEMENT_3D ( 'NONE', #59, #82, #218 ) ;
#155 = DIRECTION ( 'NONE',  ( -0.000000000000000000, 0.000000000000000000, 1.000000000000000000 ) ) ;
#156 = PLANE ( 'NONE',  #171 ) ;
#157 = DIRECTION ( 'NONE',  ( -1.000000000000000000, -0.000000000000000000, -0.000000000000000000 ) ) ;
#158 = DATE_TIME_ROLE ( 'creation_date' ) ;
#159 = DIRECTION ( 'NONE',  ( 0.000000000000000000, 0.000000000000000000, 1.000000000000000000 ) ) ;
#160 = LOCAL_TIME ( 11, 17, 0.000000000000000000, #92 ) ;
#161 = PERSON_AND_ORGANIZATION_ROLE ( 'classification_officer' ) ;
#162 = ORGANIZATION ( 'UNSPECIFIED', 'UNSPECIFIED', '' ) ;
#163 = AXIS2_PLACEMENT_3D ( 'NONE', #238, #175, #58 ) ;
#164 = ORIENTED_EDGE ( 'NONE', *, *, #38, .T. ) ;
#165 = ORIENTED_EDGE ( 'NONE', *, *, #56, .F. ) ;
#166 = CALENDAR_DATE ( 2025, 26, 8 ) ;
#167 = FACE_BOUND ( 'NONE', #152, .T. ) ;
#168 = FACE_OUTER_BOUND ( 'NONE', #205, .T. ) ;
#169 = ORIENTED_EDGE ( 'NONE', *, *, #212, .F. ) ;
#170 = ORIENTED_EDGE ( 'NONE', *, *, #87, .T. ) ;
#171 = AXIS2_PLACEMENT_3D ( 'NONE', #26, #64, #23 ) ;
#172 = COORDINATED_UNIVERSAL_TIME_OFFSET ( 5, 0, .BEHIND. ) ;
#173 = CIRCLE ( 'NONE', #243, 0.2640000000000000124 ) ;
#174 = EDGE_LOOP ( 'NONE', ( #121, #69 ) ) ;
#175 = DIRECTION ( 'NONE',  ( -1.000000000000000000, -0.000000000000000000, -0.000000000000000000 ) ) ;
#176 = ORIENTED_EDGE ( 'NONE', *, *, #209, .T. ) ;
#177 = CC_DESIGN_PERSON_AND_ORGANIZATION_ASSIGNMENT ( #34, #89, ( #129 ) ) ;
#178 = DIRECTION ( 'NONE',  ( -1.000000000000000000, -0.000000000000000000, -0.000000000000000000 ) ) ;
#179 = DIRECTION ( 'NONE',  ( -1.000000000000000000, -0.000000000000000000, -0.000000000000000000 ) ) ;
#180 = PERSON_AND_ORGANIZATION ( #191, #162 ) ;
#181 = APPROVAL_STATUS ( 'not_yet_approved' ) ;
#182 = CIRCLE ( 'NONE', #1, 0.2640000000000000124 ) ;
#183 = APPLICATION_CONTEXT ( 'configuration controlled 3d designs of mechanical parts and assemblies' ) ;
#184 = VERTEX_POINT ( 'NONE', #85 ) ;
#185 = VECTOR ( 'NONE', #60, 39.37007874015748143 ) ;
#186 = AXIS2_PLACEMENT_3D ( 'NONE', #39, #178, #138 ) ;
#187 = EDGE_CURVE ( 'NONE', #227, #184, #74, .T. ) ;
#188 = CALENDAR_DATE ( 2025, 26, 8 ) ;
#189 = MANIFOLD_SOLID_BREP ( 'Revolve1', #225 ) ;
#190 = CC_DESIGN_PERSON_AND_ORGANIZATION_ASSIGNMENT ( #235, #10, ( #129 ) ) ;
#191 = PERSON ( 'UNSPECIFIED', 'UNSPECIFIED', 'UNSPECIFIED', ('UNSPECIFIED'), ('UNSPECIFIED'), ('UNSPECIFIED') ) ;
#192 = LINE ( 'NONE', #99, #139 ) ;
#193 = LOCAL_TIME ( 11, 17, 0.000000000000000000, #73 ) ;
#194 = VECTOR ( 'NONE', #24, 39.37007874015748143 ) ;
#195 = CARTESIAN_POINT ( 'NONE',  ( 0.000000000000000000, 1.956373261637897039E-17, -0.1597500000000000309 ) ) ;
#196 = CARTESIAN_POINT ( 'NONE',  ( 0.06700000000000001787, 1.956373261637897039E-17, -0.1597500000000000309 ) ) ;
#197 = CYLINDRICAL_SURFACE ( 'NONE', #3, 0.1597500000000000309 ) ;
#198 = DIRECTION ( 'NONE',  ( -1.000000000000000000, -0.000000000000000000, -0.000000000000000000 ) ) ;
#199 = AXIS2_PLACEMENT_3D ( 'NONE', #203, #245, #31 ) ;
#200 = AXIS2_PLACEMENT_3D ( 'NONE', #120, #140, #155 ) ;
#201 = PERSON_AND_ORGANIZATION_ROLE ( 'creator' ) ;
#202 = APPROVAL_STATUS ( 'not_yet_approved' ) ;
#203 = CARTESIAN_POINT ( 'NONE',  ( 0.000000000000000000, 0.000000000000000000, 0.000000000000000000 ) ) ;
#204 = PRODUCT_DEFINITION_SHAPE ( 'NONE', 'NONE',  #234 ) ;
#205 = EDGE_LOOP ( 'NONE', ( #17, #176 ) ) ;
#206 = CALENDAR_DATE ( 2025, 26, 8 ) ;
#207 = CYLINDRICAL_SURFACE ( 'NONE', #199, 0.2640000000000000124 ) ;
#208 = DIMENSIONAL_EXPONENTS ( 1.000000000000000000, 0.000000000000000000, 0.000000000000000000, 0.000000000000000000, 0.000000000000000000, 0.000000000000000000, 0.000000000000000000 ) ;
#209 = EDGE_CURVE ( 'NONE', #72, #71, #249, .T. ) ;
#210 = ORIENTED_EDGE ( 'NONE', *, *, #19, .T. ) ;
#211 = ORIENTED_EDGE ( 'NONE', *, *, #209, .F. ) ;
#212 = EDGE_CURVE ( 'NONE', #118, #227, #228, .T. ) ;
#213 = APPROVAL_PERSON_ORGANIZATION ( #37, #90, #247 ) ;
#214 = CARTESIAN_POINT ( 'NONE',  ( 0.000000000000000000, 0.000000000000000000, 0.000000000000000000 ) ) ;
#215 = ORIENTED_EDGE ( 'NONE', *, *, #130, .T. ) ;
#216 = SECURITY_CLASSIFICATION ( '', '', #66 ) ;
#217 = CARTESIAN_POINT ( 'NONE',  ( 0.000000000000000000, 1.956373261637897039E-17, -0.1597500000000000309 ) ) ;
#218 = DIRECTION ( 'NONE',  ( 0.000000000000000000, 0.000000000000000000, 1.000000000000000000 ) ) ;
#219 = ORIENTED_EDGE ( 'NONE', *, *, #95, .F. ) ;
#220 = VERTEX_POINT ( 'NONE', #102 ) ;
#221 = CARTESIAN_POINT ( 'NONE',  ( 0.000000000000000000, 0.000000000000000000, 0.000000000000000000 ) ) ;
#222 = DIRECTION ( 'NONE',  ( -1.000000000000000000, -0.000000000000000000, -0.000000000000000000 ) ) ;
#223 = CALENDAR_DATE ( 2025, 26, 8 ) ;
#224 = APPROVAL_STATUS ( 'not_yet_approved' ) ;
#225 = CLOSED_SHELL ( 'NONE', ( #251, #233, #76, #149, #52, #53 ) ) ;
#226 = PERSON_AND_ORGANIZATION_ROLE ( 'design_owner' ) ;
#227 = VERTEX_POINT ( 'NONE', #240 ) ;
#228 = CIRCLE ( 'NONE', #186, 0.1597500000000000309 ) ;
#229 = DATE_AND_TIME ( #135, #160 ) ;
#230 = FACE_OUTER_BOUND ( 'NONE', #78, .T. ) ;
#231 = CYLINDRICAL_SURFACE ( 'NONE', #148, 0.2640000000000000124 ) ;
#232 = UNCERTAINTY_MEASURE_WITH_UNIT (LENGTH_MEASURE( 1.000000000000000082E-05 ), #128, 'distance_accuracy_value', 'NONE');
#233 = ADVANCED_FACE ( 'NONE', ( #47 ), #197, .F. ) ;
#234 = PRODUCT_DEFINITION ( 'UNKNOWN', '', #129, #146 ) ;
#235 = PERSON_AND_ORGANIZATION ( #191, #162 ) ;
#236 = EDGE_LOOP ( 'NONE', ( #219, #107, #170, #211 ) ) ;
#237 = CARTESIAN_POINT ( 'NONE',  ( 0.000000000000000000, 0.000000000000000000, 0.000000000000000000 ) ) ;
#238 = CARTESIAN_POINT ( 'NONE',  ( 0.000000000000000000, 0.000000000000000000, 0.000000000000000000 ) ) ;
#239 = ADVANCED_BREP_SHAPE_REPRESENTATION ( 'GSK-110-T', ( #189, #119 ), #147 ) ;
#240 = CARTESIAN_POINT ( 'NONE',  ( 0.06700000000000001787, 0.000000000000000000, 0.1597500000000000309 ) ) ;
#241 = PLANE ( 'NONE',  #200 ) ;
#242 = FACE_BOUND ( 'NONE', #8, .T. ) ;
#243 = AXIS2_PLACEMENT_3D ( 'NONE', #214, #179, #41 ) ;
#244 = PERSON_AND_ORGANIZATION ( #191, #162 ) ;
#245 = DIRECTION ( 'NONE',  ( -1.000000000000000000, -0.000000000000000000, -0.000000000000000000 ) ) ;
#246 = DIRECTION ( 'NONE',  ( 0.000000000000000000, 0.000000000000000000, 1.000000000000000000 ) ) ;
#247 = APPROVAL_ROLE ( '' ) ;
#248 = CC_DESIGN_PERSON_AND_ORGANIZATION_ASSIGNMENT ( #180, #161, ( #216 ) ) ;
#249 = CIRCLE ( 'NONE', #70, 0.2640000000000000124 ) ;
#250 = LOCAL_TIME ( 11, 17, 0.000000000000000000, #108 ) ;
#251 = ADVANCED_FACE ( 'NONE', ( #98 ), #207, .T. ) ;
#252 = LINE ( 'NONE', #136, #194 ) ;
ENDSEC;
END-ISO-10303-21;
