ISO-10303-21;
HEADER;
FILE_DESCRIPTION (( 'STEP AP203' ),
    '1' );
FILE_NAME ('GSK-170-T.STEP',
    '2025-08-26T15:29:10',
    ( '' ),
    ( '' ),
    'SwSTEP 2.0',
    'SolidWorks 2018',
    '' );
FILE_SCHEMA (( 'CONFIG_CONTROL_DESIGN' ));
ENDSEC;

DATA;
#1 = COORDINATED_UNIVERSAL_TIME_OFFSET ( 5, 0, .BEHIND. ) ;
#2 = ADVANCED_FACE ( 'NONE', ( #46, #251 ), #103, .F. ) ;
#3 = VECTOR ( 'NONE', #94, 39.37007874015748143 ) ;
#4 = PERSON_AND_ORGANIZATION_ROLE ( 'creator' ) ;
#5 = AXIS2_PLACEMENT_3D ( 'NONE', #64, #20, #47 ) ;
#6 = DATE_AND_TIME ( #227, #15 ) ;
#7 = EDGE_LOOP ( 'NONE', ( #242, #68 ) ) ;
#8 = CARTESIAN_POINT ( 'NONE',  ( 0.000000000000000000, 0.000000000000000000, 0.000000000000000000 ) ) ;
#9 = CC_DESIGN_PERSON_AND_ORGANIZATION_ASSIGNMENT ( #159, #4, ( #135 ) ) ;
#10 = DATE_AND_TIME ( #26, #173 ) ;
#11 = ORIENTED_EDGE ( 'NONE', *, *, #81, .F. ) ;
#12 = CARTESIAN_POINT ( 'NONE',  ( 0.000000000000000000, 0.000000000000000000, 0.000000000000000000 ) ) ;
#13 = AXIS2_PLACEMENT_3D ( 'NONE', #101, #29, #117 ) ;
#14 = CARTESIAN_POINT ( 'NONE',  ( 0.000000000000000000, 2.617682533177467539E-17, -0.2137499999999999956 ) ) ;
#15 = LOCAL_TIME ( 11, 29, 10.00000000000000000, #128 ) ;
#16 = EDGE_LOOP ( 'NONE', ( #107, #176, #90, #54 ) ) ;
#17 = CARTESIAN_POINT ( 'NONE',  ( 0.000000000000000000, 0.000000000000000000, 0.09349999999999999978 ) ) ;
#18 = APPROVAL_STATUS ( 'not_yet_approved' ) ;
#19 = CARTESIAN_POINT ( 'NONE',  ( 0.000000000000000000, 0.000000000000000000, 0.000000000000000000 ) ) ;
#20 = DIRECTION ( 'NONE',  ( -1.000000000000000000, -0.000000000000000000, -0.000000000000000000 ) ) ;
#21 = EDGE_CURVE ( 'NONE', #36, #234, #245, .T. ) ;
#22 = ORIENTED_EDGE ( 'NONE', *, *, #112, .F. ) ;
#23 = EDGE_LOOP ( 'NONE', ( #22, #220 ) ) ;
#24 = EDGE_LOOP ( 'NONE', ( #219, #192, #99, #109 ) ) ;
#25 =( LENGTH_UNIT ( ) NAMED_UNIT ( * ) SI_UNIT ( $, .METRE. ) );
#26 = CALENDAR_DATE ( 2025, 26, 8 ) ;
#27 = AXIS2_PLACEMENT_3D ( 'NONE', #19, #41, #49 ) ;
#28 = FACE_OUTER_BOUND ( 'NONE', #16, .T. ) ;
#29 = DIRECTION ( 'NONE',  ( -1.000000000000000000, -0.000000000000000000, -0.000000000000000000 ) ) ;
#30 = VECTOR ( 'NONE', #51, 39.37007874015748143 ) ;
#31 = CC_DESIGN_SECURITY_CLASSIFICATION ( #193, ( #135 ) ) ;
#32 = DATE_AND_TIME ( #118, #48 ) ;
#33 = DIMENSIONAL_EXPONENTS ( 1.000000000000000000, 0.000000000000000000, 0.000000000000000000, 0.000000000000000000, 0.000000000000000000, 0.000000000000000000, 0.000000000000000000 ) ;
#34 = CIRCLE ( 'NONE', #27, 0.2137499999999999956 ) ;
#35 =( NAMED_UNIT ( * ) SI_UNIT ( $, .STERADIAN. ) SOLID_ANGLE_UNIT ( ) );
#36 = VERTEX_POINT ( 'NONE', #162 ) ;
#37 = VERTEX_POINT ( 'NONE', #121 ) ;
#38 = CARTESIAN_POINT ( 'NONE',  ( 0.000000000000000000, 0.000000000000000000, 0.000000000000000000 ) ) ;
#39 =( CONVERSION_BASED_UNIT ( 'INCH', #207 ) LENGTH_UNIT ( ) NAMED_UNIT ( #33 ) );
#40 = APPROVAL_PERSON_ORGANIZATION ( #136, #146, #143 ) ;
#41 = DIRECTION ( 'NONE',  ( -1.000000000000000000, -0.000000000000000000, -0.000000000000000000 ) ) ;
#42 = FACE_OUTER_BOUND ( 'NONE', #58, .T. ) ;
#43 = CYLINDRICAL_SURFACE ( 'NONE', #179, 0.2137499999999999956 ) ;
#44 = EDGE_CURVE ( 'NONE', #169, #36, #83, .T. ) ;
#45 = CARTESIAN_POINT ( 'NONE',  ( 0.000000000000000000, 0.000000000000000000, 0.000000000000000000 ) ) ;
#46 = FACE_BOUND ( 'NONE', #23, .T. ) ;
#47 = DIRECTION ( 'NONE',  ( 0.000000000000000000, 0.000000000000000000, 1.000000000000000000 ) ) ;
#48 = LOCAL_TIME ( 11, 29, 10.00000000000000000, #1 ) ;
#49 = DIRECTION ( 'NONE',  ( 0.000000000000000000, 0.000000000000000000, 1.000000000000000000 ) ) ;
#50 = EDGE_CURVE ( 'NONE', #63, #84, #144, .T. ) ;
#51 = DIRECTION ( 'NONE',  ( -1.000000000000000000, -0.000000000000000000, -0.000000000000000000 ) ) ;
#52 = CALENDAR_DATE ( 2025, 26, 8 ) ;
#53 = ADVANCED_FACE ( 'NONE', ( #156 ), #189, .F. ) ;
#54 = ORIENTED_EDGE ( 'NONE', *, *, #155, .F. ) ;
#55 = SECURITY_CLASSIFICATION_LEVEL ( 'unclassified' ) ;
#56 = EDGE_CURVE ( 'NONE', #169, #181, #149, .T. ) ;
#57 = APPROVAL_ROLE ( '' ) ;
#58 = EDGE_LOOP ( 'NONE', ( #229, #150, #130, #11 ) ) ;
#59 = PERSON_AND_ORGANIZATION_ROLE ( 'classification_officer' ) ;
#60 = CC_DESIGN_PERSON_AND_ORGANIZATION_ASSIGNMENT ( #216, #161, ( #170 ) ) ;
#61 = PERSON_AND_ORGANIZATION ( #230, #93 ) ;
#62 = ORIENTED_EDGE ( 'NONE', *, *, #198, .T. ) ;
#63 = VERTEX_POINT ( 'NONE', #233 ) ;
#64 = CARTESIAN_POINT ( 'NONE',  ( 0.1049999999999999961, 0.000000000000000000, 0.000000000000000000 ) ) ;
#65 = DIRECTION ( 'NONE',  ( -1.000000000000000000, -0.000000000000000000, -0.000000000000000000 ) ) ;
#66 = AXIS2_PLACEMENT_3D ( 'NONE', #201, #221, #199 ) ;
#67 = COORDINATED_UNIVERSAL_TIME_OFFSET ( 5, 0, .BEHIND. ) ;
#68 = ORIENTED_EDGE ( 'NONE', *, *, #155, .T. ) ;
#69 = DIRECTION ( 'NONE',  ( 0.000000000000000000, 0.000000000000000000, 1.000000000000000000 ) ) ;
#70 = CARTESIAN_POINT ( 'NONE',  ( 0.000000000000000000, 0.000000000000000000, 0.000000000000000000 ) ) ;
#71 = CARTESIAN_POINT ( 'NONE',  ( 0.000000000000000000, 1.145044757202775487E-17, -0.09349999999999999978 ) ) ;
#72 = ADVANCED_FACE ( 'NONE', ( #89, #214 ), #157, .F. ) ;
#73 = APPLICATION_CONTEXT ( 'configuration controlled 3d designs of mechanical parts and assemblies' ) ;
#74 = CIRCLE ( 'NONE', #85, 0.09349999999999999978 ) ;
#75 = AXIS2_PLACEMENT_3D ( 'NONE', #249, #218, #116 ) ;
#76 = APPLICATION_PROTOCOL_DEFINITION ( 'international standard', 'config_control_design', 1994, #73 ) ;
#77 = EDGE_LOOP ( 'NONE', ( #194, #102 ) ) ;
#78 = PRODUCT_DEFINITION_SHAPE ( 'NONE', 'NONE',  #210 ) ;
#79 = APPROVAL_PERSON_ORGANIZATION ( #113, #217, #57 ) ;
#80 = CIRCLE ( 'NONE', #151, 0.2137499999999999956 ) ;
#81 = EDGE_CURVE ( 'NONE', #37, #129, #250, .T. ) ;
#82 = DIRECTION ( 'NONE',  ( 0.000000000000000000, 0.000000000000000000, 1.000000000000000000 ) ) ;
#83 = CIRCLE ( 'NONE', #13, 0.09349999999999999978 ) ;
#84 = VERTEX_POINT ( 'NONE', #120 ) ;
#85 = AXIS2_PLACEMENT_3D ( 'NONE', #114, #196, #69 ) ;
#86 = EDGE_LOOP ( 'NONE', ( #138, #139, #224, #119 ) ) ;
#87 = DATE_AND_TIME ( #203, #152 ) ;
#88 = CARTESIAN_POINT ( 'NONE',  ( 0.000000000000000000, 0.000000000000000000, 0.09349999999999999978 ) ) ;
#89 = FACE_OUTER_BOUND ( 'NONE', #77, .T. ) ;
#90 = ORIENTED_EDGE ( 'NONE', *, *, #81, .T. ) ;
#91 = DIRECTION ( 'NONE',  ( -1.000000000000000000, -0.000000000000000000, -0.000000000000000000 ) ) ;
#92 = APPROVAL ( #18, 'UNSPECIFIED' ) ;
#93 = ORGANIZATION ( 'UNSPECIFIED', 'UNSPECIFIED', '' ) ;
#94 = DIRECTION ( 'NONE',  ( -1.000000000000000000, -0.000000000000000000, -0.000000000000000000 ) ) ;
#95 = LOCAL_TIME ( 11, 29, 10.00000000000000000, #188 ) ;
#96 = UNCERTAINTY_MEASURE_WITH_UNIT (LENGTH_MEASURE( 1.000000000000000082E-05 ), #39, 'distance_accuracy_value', 'NONE');
#97 = CYLINDRICAL_SURFACE ( 'NONE', #215, 0.09349999999999999978 ) ;
#98 = APPROVAL_STATUS ( 'not_yet_approved' ) ;
#99 = ORIENTED_EDGE ( 'NONE', *, *, #21, .T. ) ;
#100 = EDGE_CURVE ( 'NONE', #63, #37, #80, .T. ) ;
#101 = CARTESIAN_POINT ( 'NONE',  ( 0.1050000000000000100, 0.000000000000000000, 0.000000000000000000 ) ) ;
#102 = ORIENTED_EDGE ( 'NONE', *, *, #100, .F. ) ;
#103 = PLANE ( 'NONE',  #132 ) ;
#104 =( GEOMETRIC_REPRESENTATION_CONTEXT ( 3 ) GLOBAL_UNCERTAINTY_ASSIGNED_CONTEXT ( ( #96 ) ) GLOBAL_UNIT_ASSIGNED_CONTEXT ( ( #39, #212, #35 ) ) REPRESENTATION_CONTEXT ( 'NONE', 'WORKASPACE' ) );
#105 = COORDINATED_UNIVERSAL_TIME_OFFSET ( 5, 0, .BEHIND. ) ;
#106 = DIRECTION ( 'NONE',  ( -1.000000000000000000, -0.000000000000000000, -0.000000000000000000 ) ) ;
#107 = ORIENTED_EDGE ( 'NONE', *, *, #50, .F. ) ;
#108 = DIRECTION ( 'NONE',  ( -1.000000000000000000, -0.000000000000000000, -0.000000000000000000 ) ) ;
#109 = ORIENTED_EDGE ( 'NONE', *, *, #112, .T. ) ;
#110 = CC_DESIGN_PERSON_AND_ORGANIZATION_ASSIGNMENT ( #140, #236, ( #135 ) ) ;
#111 = DIRECTION ( 'NONE',  ( -1.000000000000000000, -0.000000000000000000, -0.000000000000000000 ) ) ;
#112 = EDGE_CURVE ( 'NONE', #234, #181, #238, .T. ) ;
#113 = PERSON_AND_ORGANIZATION ( #230, #93 ) ;
#114 = CARTESIAN_POINT ( 'NONE',  ( 0.000000000000000000, 0.000000000000000000, 0.000000000000000000 ) ) ;
#115 = ORIENTED_EDGE ( 'NONE', *, *, #44, .T. ) ;
#116 = DIRECTION ( 'NONE',  ( 0.000000000000000000, 0.000000000000000000, 1.000000000000000000 ) ) ;
#117 = DIRECTION ( 'NONE',  ( 0.000000000000000000, 0.000000000000000000, 1.000000000000000000 ) ) ;
#118 = CALENDAR_DATE ( 2025, 26, 8 ) ;
#119 = ORIENTED_EDGE ( 'NONE', *, *, #21, .F. ) ;
#120 = CARTESIAN_POINT ( 'NONE',  ( 0.000000000000000000, 2.617682533177467539E-17, -0.2137499999999999956 ) ) ;
#121 = CARTESIAN_POINT ( 'NONE',  ( 0.1049999999999999961, 0.000000000000000000, 0.2137499999999999956 ) ) ;
#122 = APPLICATION_PROTOCOL_DEFINITION ( 'international standard', 'config_control_design', 1994, #225 ) ;
#123 = DIRECTION ( 'NONE',  ( 0.000000000000000000, 0.000000000000000000, -1.000000000000000000 ) ) ;
#124 = AXIS2_PLACEMENT_3D ( 'NONE', #38, #183, #206 ) ;
#125 = MECHANICAL_CONTEXT ( 'NONE', #73, 'mechanical' ) ;
#126 = DIRECTION ( 'NONE',  ( 0.000000000000000000, 0.000000000000000000, 1.000000000000000000 ) ) ;
#127 = EDGE_CURVE ( 'NONE', #129, #84, #34, .T. ) ;
#128 = COORDINATED_UNIVERSAL_TIME_OFFSET ( 5, 0, .BEHIND. ) ;
#129 = VERTEX_POINT ( 'NONE', #185 ) ;
#130 = ORIENTED_EDGE ( 'NONE', *, *, #127, .F. ) ;
#131 = ADVANCED_BREP_SHAPE_REPRESENTATION ( 'GSK-170-T', ( #148, #124 ), #104 ) ;
#132 = AXIS2_PLACEMENT_3D ( 'NONE', #237, #240, #123 ) ;
#133 = DIRECTION ( 'NONE',  ( 0.000000000000000000, 0.000000000000000000, 1.000000000000000000 ) ) ;
#134 = DESIGN_CONTEXT ( 'detailed design', #225, 'design' ) ;
#135 = PRODUCT_DEFINITION_FORMATION_WITH_SPECIFIED_SOURCE ( 'ANY', '', #170, .NOT_KNOWN. ) ;
#136 = PERSON_AND_ORGANIZATION ( #230, #93 ) ;
#137 = PRODUCT_RELATED_PRODUCT_CATEGORY ( 'detail', '', ( #170 ) ) ;
#138 = ORIENTED_EDGE ( 'NONE', *, *, #44, .F. ) ;
#139 = ORIENTED_EDGE ( 'NONE', *, *, #56, .T. ) ;
#140 = PERSON_AND_ORGANIZATION ( #230, #93 ) ;
#141 = VECTOR ( 'NONE', #91, 39.37007874015748143 ) ;
#142 = DIRECTION ( 'NONE',  ( 0.000000000000000000, 0.000000000000000000, 1.000000000000000000 ) ) ;
#143 = APPROVAL_ROLE ( '' ) ;
#144 = LINE ( 'NONE', #14, #30 ) ;
#145 = CARTESIAN_POINT ( 'NONE',  ( 0.000000000000000000, 0.000000000000000000, 0.000000000000000000 ) ) ;
#146 = APPROVAL ( #98, 'UNSPECIFIED' ) ;
#147 = APPROVAL_DATE_TIME ( #87, #92 ) ;
#148 = MANIFOLD_SOLID_BREP ( 'Revolve1', #160 ) ;
#149 = LINE ( 'NONE', #71, #141 ) ;
#150 = ORIENTED_EDGE ( 'NONE', *, *, #50, .T. ) ;
#151 = AXIS2_PLACEMENT_3D ( 'NONE', #187, #106, #142 ) ;
#152 = LOCAL_TIME ( 11, 29, 10.00000000000000000, #105 ) ;
#153 = DIRECTION ( 'NONE',  ( 0.000000000000000000, 0.000000000000000000, 1.000000000000000000 ) ) ;
#154 = FACE_OUTER_BOUND ( 'NONE', #24, .T. ) ;
#155 = EDGE_CURVE ( 'NONE', #84, #129, #197, .T. ) ;
#156 = FACE_OUTER_BOUND ( 'NONE', #86, .T. ) ;
#157 = PLANE ( 'NONE',  #66 ) ;
#158 = ADVANCED_FACE ( 'NONE', ( #154 ), #97, .F. ) ;
#159 = PERSON_AND_ORGANIZATION ( #230, #93 ) ;
#160 = CLOSED_SHELL ( 'NONE', ( #204, #53, #158, #2, #182, #72 ) ) ;
#161 = PERSON_AND_ORGANIZATION_ROLE ( 'design_owner' ) ;
#162 = CARTESIAN_POINT ( 'NONE',  ( 0.1050000000000000100, 0.000000000000000000, 0.09349999999999999978 ) ) ;
#163 = DIRECTION ( 'NONE',  ( -1.000000000000000000, -0.000000000000000000, -0.000000000000000000 ) ) ;
#164 = AXIS2_PLACEMENT_3D ( 'NONE', #45, #65, #190 ) ;
#165 = DATE_TIME_ROLE ( 'creation_date' ) ;
#166 = DIRECTION ( 'NONE',  ( -1.000000000000000000, -0.000000000000000000, -0.000000000000000000 ) ) ;
#167 = AXIS2_PLACEMENT_3D ( 'NONE', #70, #178, #222 ) ;
#168 = APPROVAL_DATE_TIME ( #6, #146 ) ;
#169 = VERTEX_POINT ( 'NONE', #191 ) ;
#170 = PRODUCT ( 'GSK-170-T', 'GSK-170-T', '', ( #125 ) ) ;
#171 = EDGE_CURVE ( 'NONE', #37, #63, #205, .T. ) ;
#172 = CARTESIAN_POINT ( 'NONE',  ( 0.000000000000000000, 1.145044757202775487E-17, -0.09349999999999999978 ) ) ;
#173 = LOCAL_TIME ( 11, 29, 10.00000000000000000, #67 ) ;
#174 = CARTESIAN_POINT ( 'NONE',  ( 0.000000000000000000, 0.000000000000000000, 0.2137499999999999956 ) ) ;
#175 = CC_DESIGN_APPROVAL ( #217, ( #135 ) ) ;
#176 = ORIENTED_EDGE ( 'NONE', *, *, #100, .T. ) ;
#177 = DIRECTION ( 'NONE',  ( -1.000000000000000000, -0.000000000000000000, -0.000000000000000000 ) ) ;
#178 = DIRECTION ( 'NONE',  ( -1.000000000000000000, -0.000000000000000000, -0.000000000000000000 ) ) ;
#179 = AXIS2_PLACEMENT_3D ( 'NONE', #12, #177, #153 ) ;
#180 = AXIS2_PLACEMENT_3D ( 'NONE', #145, #166, #126 ) ;
#181 = VERTEX_POINT ( 'NONE', #172 ) ;
#182 = ADVANCED_FACE ( 'NONE', ( #28 ), #244, .T. ) ;
#183 = DIRECTION ( 'NONE',  ( 0.000000000000000000, 0.000000000000000000, 1.000000000000000000 ) ) ;
#184 = DATE_TIME_ROLE ( 'classification_date' ) ;
#185 = CARTESIAN_POINT ( 'NONE',  ( 0.000000000000000000, 0.000000000000000000, 0.2137499999999999956 ) ) ;
#186 = CC_DESIGN_PERSON_AND_ORGANIZATION_ASSIGNMENT ( #61, #211, ( #210 ) ) ;
#187 = CARTESIAN_POINT ( 'NONE',  ( 0.1049999999999999961, 0.000000000000000000, 0.000000000000000000 ) ) ;
#188 = COORDINATED_UNIVERSAL_TIME_OFFSET ( 5, 0, .BEHIND. ) ;
#189 = CYLINDRICAL_SURFACE ( 'NONE', #167, 0.09349999999999999978 ) ;
#190 = DIRECTION ( 'NONE',  ( 0.000000000000000000, 0.000000000000000000, 1.000000000000000000 ) ) ;
#191 = CARTESIAN_POINT ( 'NONE',  ( 0.1050000000000000100, 1.145044757202775487E-17, -0.09349999999999999978 ) ) ;
#192 = ORIENTED_EDGE ( 'NONE', *, *, #198, .F. ) ;
#193 = SECURITY_CLASSIFICATION ( '', '', #55 ) ;
#194 = ORIENTED_EDGE ( 'NONE', *, *, #171, .F. ) ;
#195 = APPROVAL_DATE_TIME ( #32, #217 ) ;
#196 = DIRECTION ( 'NONE',  ( -1.000000000000000000, -0.000000000000000000, -0.000000000000000000 ) ) ;
#197 = CIRCLE ( 'NONE', #226, 0.2137499999999999956 ) ;
#198 = EDGE_CURVE ( 'NONE', #36, #169, #209, .T. ) ;
#199 = DIRECTION ( 'NONE',  ( -0.000000000000000000, 0.000000000000000000, 1.000000000000000000 ) ) ;
#200 = VECTOR ( 'NONE', #163, 39.37007874015748143 ) ;
#201 = CARTESIAN_POINT ( 'NONE',  ( 0.1050000000000000100, 0.2137499999999999956, 0.000000000000000000 ) ) ;
#202 = CC_DESIGN_DATE_AND_TIME_ASSIGNMENT ( #10, #165, ( #210 ) ) ;
#203 = CALENDAR_DATE ( 2025, 26, 8 ) ;
#204 = ADVANCED_FACE ( 'NONE', ( #42 ), #43, .T. ) ;
#205 = CIRCLE ( 'NONE', #5, 0.2137499999999999956 ) ;
#206 = DIRECTION ( 'NONE',  ( 1.000000000000000000, 0.000000000000000000, 0.000000000000000000 ) ) ;
#207 = LENGTH_MEASURE_WITH_UNIT ( LENGTH_MEASURE( 0.02539999999999999897 ), #25 );
#208 = APPROVAL_STATUS ( 'not_yet_approved' ) ;
#209 = CIRCLE ( 'NONE', #75, 0.09349999999999999978 ) ;
#210 = PRODUCT_DEFINITION ( 'UNKNOWN', '', #135, #134 ) ;
#211 = PERSON_AND_ORGANIZATION_ROLE ( 'creator' ) ;
#212 =( NAMED_UNIT ( * ) PLANE_ANGLE_UNIT ( ) SI_UNIT ( $, .RADIAN. ) );
#213 = SHAPE_DEFINITION_REPRESENTATION ( #78, #131 ) ;
#214 = FACE_BOUND ( 'NONE', #247, .T. ) ;
#215 = AXIS2_PLACEMENT_3D ( 'NONE', #8, #108, #82 ) ;
#216 = PERSON_AND_ORGANIZATION ( #230, #93 ) ;
#217 = APPROVAL ( #208, 'UNSPECIFIED' ) ;
#218 = DIRECTION ( 'NONE',  ( -1.000000000000000000, -0.000000000000000000, -0.000000000000000000 ) ) ;
#219 = ORIENTED_EDGE ( 'NONE', *, *, #56, .F. ) ;
#220 = ORIENTED_EDGE ( 'NONE', *, *, #246, .F. ) ;
#221 = DIRECTION ( 'NONE',  ( -1.000000000000000000, 0.000000000000000000, -0.000000000000000000 ) ) ;
#222 = DIRECTION ( 'NONE',  ( 0.000000000000000000, 0.000000000000000000, 1.000000000000000000 ) ) ;
#223 = DATE_AND_TIME ( #52, #95 ) ;
#224 = ORIENTED_EDGE ( 'NONE', *, *, #246, .T. ) ;
#225 = APPLICATION_CONTEXT ( 'configuration controlled 3d designs of mechanical parts and assemblies' ) ;
#226 = AXIS2_PLACEMENT_3D ( 'NONE', #231, #111, #133 ) ;
#227 = CALENDAR_DATE ( 2025, 26, 8 ) ;
#228 = CC_DESIGN_APPROVAL ( #146, ( #193 ) ) ;
#229 = ORIENTED_EDGE ( 'NONE', *, *, #171, .T. ) ;
#230 = PERSON ( 'UNSPECIFIED', 'UNSPECIFIED', 'UNSPECIFIED', ('UNSPECIFIED'), ('UNSPECIFIED'), ('UNSPECIFIED') ) ;
#231 = CARTESIAN_POINT ( 'NONE',  ( 0.000000000000000000, 0.000000000000000000, 0.000000000000000000 ) ) ;
#232 = CC_DESIGN_APPROVAL ( #92, ( #210 ) ) ;
#233 = CARTESIAN_POINT ( 'NONE',  ( 0.1049999999999999961, 2.617682533177467539E-17, -0.2137499999999999956 ) ) ;
#234 = VERTEX_POINT ( 'NONE', #88 ) ;
#235 = PERSON_AND_ORGANIZATION ( #230, #93 ) ;
#236 = PERSON_AND_ORGANIZATION_ROLE ( 'design_supplier' ) ;
#237 = CARTESIAN_POINT ( 'NONE',  ( 0.000000000000000000, 0.09349999999999999978, 0.000000000000000000 ) ) ;
#238 = CIRCLE ( 'NONE', #180, 0.09349999999999999978 ) ;
#239 = APPROVAL_ROLE ( '' ) ;
#240 = DIRECTION ( 'NONE',  ( 1.000000000000000000, 0.000000000000000000, 0.000000000000000000 ) ) ;
#241 = CC_DESIGN_PERSON_AND_ORGANIZATION_ASSIGNMENT ( #235, #59, ( #193 ) ) ;
#242 = ORIENTED_EDGE ( 'NONE', *, *, #127, .T. ) ;
#243 = APPROVAL_PERSON_ORGANIZATION ( #248, #92, #239 ) ;
#244 = CYLINDRICAL_SURFACE ( 'NONE', #164, 0.2137499999999999956 ) ;
#245 = LINE ( 'NONE', #17, #200 ) ;
#246 = EDGE_CURVE ( 'NONE', #181, #234, #74, .T. ) ;
#247 = EDGE_LOOP ( 'NONE', ( #62, #115 ) ) ;
#248 = PERSON_AND_ORGANIZATION ( #230, #93 ) ;
#249 = CARTESIAN_POINT ( 'NONE',  ( 0.1050000000000000100, 0.000000000000000000, 0.000000000000000000 ) ) ;
#250 = LINE ( 'NONE', #174, #3 ) ;
#251 = FACE_OUTER_BOUND ( 'NONE', #7, .T. ) ;
#252 = CC_DESIGN_DATE_AND_TIME_ASSIGNMENT ( #223, #184, ( #193 ) ) ;
ENDSEC;
END-ISO-10303-21;
