ISO-10303-21;
HEADER;
FILE_DESCRIPTION (( 'STEP AP203' ),
    '1' );
FILE_NAME ('GSK-180-K.STEP',
    '2025-08-26T15:51:34',
    ( '' ),
    ( '' ),
    'SwSTEP 2.0',
    'SolidWorks 2018',
    '' );
FILE_SCHEMA (( 'CONFIG_CONTROL_DESIGN' ));
ENDSEC;

DATA;
#1 = PERSON_AND_ORGANIZATION ( #197, #24 ) ;
#2 = EDGE_LOOP ( 'NONE', ( #60, #13 ) ) ;
#3 = APPLICATION_PROTOCOL_DEFINITION ( 'international standard', 'config_control_design', 1994, #210 ) ;
#4 = APPLICATION_PROTOCOL_DEFINITION ( 'international standard', 'config_control_design', 1994, #44 ) ;
#5 = PRODUCT_DEFINITION ( 'UNKNOWN', '', #21, #224 ) ;
#6 = EDGE_LOOP ( 'NONE', ( #39, #247 ) ) ;
#7 = DATE_AND_TIME ( #123, #170 ) ;
#8 = CC_DESIGN_APPROVAL ( #198, ( #21 ) ) ;
#9 = EDGE_LOOP ( 'NONE', ( #99, #201, #145, #131 ) ) ;
#10 = DIRECTION ( 'NONE',  ( 0.000000000000000000, -0.000000000000000000, 1.000000000000000000 ) ) ;
#11 = ADVANCED_FACE ( 'NONE', ( #16, #30 ), #49, .T. ) ;
#12 = EDGE_CURVE ( 'NONE', #187, #25, #235, .T. ) ;
#13 = ORIENTED_EDGE ( 'NONE', *, *, #204, .F. ) ;
#14 = CC_DESIGN_PERSON_AND_ORGANIZATION_ASSIGNMENT ( #1, #75, ( #115 ) ) ;
#15 = DIRECTION ( 'NONE',  ( -0.000000000000000000, -1.000000000000000000, -0.000000000000000000 ) ) ;
#16 = FACE_OUTER_BOUND ( 'NONE', #186, .T. ) ;
#17 = DIRECTION ( 'NONE',  ( 0.000000000000000000, 0.000000000000000000, 1.000000000000000000 ) ) ;
#18 = CARTESIAN_POINT ( 'NONE',  ( 1.959434878635765415E-17, -0.04950000000000000233, 0.1600000000000000033 ) ) ;
#19 = CC_DESIGN_PERSON_AND_ORGANIZATION_ASSIGNMENT ( #83, #106, ( #21 ) ) ;
#20 = FACE_OUTER_BOUND ( 'NONE', #9, .T. ) ;
#21 = PRODUCT_DEFINITION_FORMATION_WITH_SPECIFIED_SOURCE ( 'ANY', '', #115, .NOT_KNOWN. ) ;
#22 = DIRECTION ( 'NONE',  ( 0.000000000000000000, 1.000000000000000000, 0.000000000000000000 ) ) ;
#23 = SECURITY_CLASSIFICATION_LEVEL ( 'unclassified' ) ;
#24 = ORGANIZATION ( 'UNSPECIFIED', 'UNSPECIFIED', '' ) ;
#25 = VERTEX_POINT ( 'NONE', #18 ) ;
#26 = EDGE_CURVE ( 'NONE', #237, #150, #205, .T. ) ;
#27 = EDGE_CURVE ( 'NONE', #166, #250, #92, .T. ) ;
#28 = DATE_AND_TIME ( #79, #96 ) ;
#29 = CC_DESIGN_PERSON_AND_ORGANIZATION_ASSIGNMENT ( #173, #94, ( #21 ) ) ;
#30 = FACE_BOUND ( 'NONE', #108, .T. ) ;
#31 = DIRECTION ( 'NONE',  ( 0.000000000000000000, 0.000000000000000000, -1.000000000000000000 ) ) ;
#32 = ADVANCED_FACE ( 'NONE', ( #165 ), #54, .T. ) ;
#33 = DIRECTION ( 'NONE',  ( 0.000000000000000000, 0.000000000000000000, 1.000000000000000000 ) ) ;
#34 = APPROVAL_PERSON_ORGANIZATION ( #185, #43, #61 ) ;
#35 = DATE_AND_TIME ( #233, #171 ) ;
#36 = ORIENTED_EDGE ( 'NONE', *, *, #143, .T. ) ;
#37 = DIRECTION ( 'NONE',  ( 0.000000000000000000, 0.000000000000000000, 1.000000000000000000 ) ) ;
#38 = DIRECTION ( 'NONE',  ( 0.000000000000000000, 1.000000000000000000, 0.000000000000000000 ) ) ;
#39 = ORIENTED_EDGE ( 'NONE', *, *, #239, .T. ) ;
#40 = CC_DESIGN_PERSON_AND_ORGANIZATION_ASSIGNMENT ( #148, #146, ( #57 ) ) ;
#41 = CIRCLE ( 'NONE', #228, 0.1600000000000000033 ) ;
#42 =( GEOMETRIC_REPRESENTATION_CONTEXT ( 3 ) GLOBAL_UNCERTAINTY_ASSIGNED_CONTEXT ( ( #109 ) ) GLOBAL_UNIT_ASSIGNED_CONTEXT ( ( #120, #208, #125 ) ) REPRESENTATION_CONTEXT ( 'NONE', 'WORKASPACE' ) );
#43 = APPROVAL ( #91, 'UNSPECIFIED' ) ;
#44 = APPLICATION_CONTEXT ( 'configuration controlled 3d designs of mechanical parts and assemblies' ) ;
#45 = DATE_AND_TIME ( #241, #67 ) ;
#46 = ORIENTED_EDGE ( 'NONE', *, *, #70, .T. ) ;
#47 = ADVANCED_BREP_SHAPE_REPRESENTATION ( 'GSK-180-K', ( #126, #162 ), #42 ) ;
#48 = LINE ( 'NONE', #68, #107 ) ;
#49 = PLANE ( 'NONE',  #104 ) ;
#50 = DIMENSIONAL_EXPONENTS ( 1.000000000000000000, 0.000000000000000000, 0.000000000000000000, 0.000000000000000000, 0.000000000000000000, 0.000000000000000000, 0.000000000000000000 ) ;
#51 = EDGE_LOOP ( 'NONE', ( #222, #46, #119, #230 ) ) ;
#52 = CARTESIAN_POINT ( 'NONE',  ( 0.000000000000000000, -0.04950000000000000233, -0.1600000000000000033 ) ) ;
#53 = DIRECTION ( 'NONE',  ( 0.000000000000000000, 1.000000000000000000, 0.000000000000000000 ) ) ;
#54 = CYLINDRICAL_SURFACE ( 'NONE', #134, 0.2222500000000000031 ) ;
#55 = CARTESIAN_POINT ( 'NONE',  ( 0.000000000000000000, 0.04950000000000000233, -0.1600000000000000033 ) ) ;
#56 = DIRECTION ( 'NONE',  ( -0.000000000000000000, -1.000000000000000000, -0.000000000000000000 ) ) ;
#57 = SECURITY_CLASSIFICATION ( '', '', #23 ) ;
#58 = DIRECTION ( 'NONE',  ( -0.000000000000000000, -1.000000000000000000, -0.000000000000000000 ) ) ;
#59 = LOCAL_TIME ( 11, 51, 34.00000000000000000, #219 ) ;
#60 = ORIENTED_EDGE ( 'NONE', *, *, #143, .F. ) ;
#61 = APPROVAL_ROLE ( '' ) ;
#62 = LENGTH_MEASURE_WITH_UNIT ( LENGTH_MEASURE( 0.02539999999999999897 ), #248 );
#63 = ORIENTED_EDGE ( 'NONE', *, *, #130, .T. ) ;
#64 = PERSON_AND_ORGANIZATION ( #197, #24 ) ;
#65 = EDGE_CURVE ( 'NONE', #250, #166, #118, .T. ) ;
#66 = CYLINDRICAL_SURFACE ( 'NONE', #192, 0.1600000000000000033 ) ;
#67 = LOCAL_TIME ( 11, 51, 34.00000000000000000, #232 ) ;
#68 = CARTESIAN_POINT ( 'NONE',  ( 0.000000000000000000, 0.04950000000000000233, -0.2222500000000000031 ) ) ;
#69 = CIRCLE ( 'NONE', #97, 0.1600000000000000033 ) ;
#70 = EDGE_CURVE ( 'NONE', #187, #237, #69, .T. ) ;
#71 = DIRECTION ( 'NONE',  ( 0.000000000000000000, 0.000000000000000000, -1.000000000000000000 ) ) ;
#72 = VECTOR ( 'NONE', #226, 39.37007874015748143 ) ;
#73 = APPROVAL_STATUS ( 'not_yet_approved' ) ;
#74 = EDGE_CURVE ( 'NONE', #250, #135, #48, .T. ) ;
#75 = PERSON_AND_ORGANIZATION_ROLE ( 'design_owner' ) ;
#76 = DATE_AND_TIME ( #190, #59 ) ;
#77 = VECTOR ( 'NONE', #15, 39.37007874015748143 ) ;
#78 = ADVANCED_FACE ( 'NONE', ( #20 ), #179, .T. ) ;
#79 = CALENDAR_DATE ( 2025, 26, 8 ) ;
#80 = AXIS2_PLACEMENT_3D ( 'NONE', #101, #142, #252 ) ;
#81 = ADVANCED_FACE ( 'NONE', ( #161, #200 ), #244, .F. ) ;
#82 = CARTESIAN_POINT ( 'NONE',  ( 0.000000000000000000, -0.04950000000000000233, 0.000000000000000000 ) ) ;
#83 = PERSON_AND_ORGANIZATION ( #197, #24 ) ;
#84 = DIRECTION ( 'NONE',  ( 0.000000000000000000, 0.000000000000000000, 1.000000000000000000 ) ) ;
#85 = DIRECTION ( 'NONE',  ( -0.000000000000000000, -1.000000000000000000, -0.000000000000000000 ) ) ;
#86 = DIRECTION ( 'NONE',  ( 0.000000000000000000, 1.000000000000000000, 0.000000000000000000 ) ) ;
#87 = AXIS2_PLACEMENT_3D ( 'NONE', #202, #58, #71 ) ;
#88 = DIRECTION ( 'NONE',  ( 0.000000000000000000, 0.000000000000000000, 1.000000000000000000 ) ) ;
#89 = DIRECTION ( 'NONE',  ( 0.000000000000000000, 1.000000000000000000, 0.000000000000000000 ) ) ;
#90 = ORIENTED_EDGE ( 'NONE', *, *, #27, .T. ) ;
#91 = APPROVAL_STATUS ( 'not_yet_approved' ) ;
#92 = CIRCLE ( 'NONE', #147, 0.2222500000000000031 ) ;
#93 = DATE_TIME_ROLE ( 'classification_date' ) ;
#94 = PERSON_AND_ORGANIZATION_ROLE ( 'design_supplier' ) ;
#95 = EDGE_LOOP ( 'NONE', ( #63, #172, #137, #102 ) ) ;
#96 = LOCAL_TIME ( 11, 51, 34.00000000000000000, #225 ) ;
#97 = AXIS2_PLACEMENT_3D ( 'NONE', #117, #181, #17 ) ;
#98 = COORDINATED_UNIVERSAL_TIME_OFFSET ( 5, 0, .BEHIND. ) ;
#99 = ORIENTED_EDGE ( 'NONE', *, *, #27, .F. ) ;
#100 = DIRECTION ( 'NONE',  ( -0.000000000000000000, -1.000000000000000000, -0.000000000000000000 ) ) ;
#101 = CARTESIAN_POINT ( 'NONE',  ( 0.000000000000000000, -0.04950000000000000233, 0.000000000000000000 ) ) ;
#102 = ORIENTED_EDGE ( 'NONE', *, *, #26, .F. ) ;
#103 = CARTESIAN_POINT ( 'NONE',  ( 0.000000000000000000, -0.04950000000000000233, 0.000000000000000000 ) ) ;
#104 = AXIS2_PLACEMENT_3D ( 'NONE', #193, #113, #10 ) ;
#105 = DIRECTION ( 'NONE',  ( 1.000000000000000000, 0.000000000000000000, 0.000000000000000000 ) ) ;
#106 = PERSON_AND_ORGANIZATION_ROLE ( 'creator' ) ;
#107 = VECTOR ( 'NONE', #196, 39.37007874015748143 ) ;
#108 = EDGE_LOOP ( 'NONE', ( #144, #207 ) ) ;
#109 = UNCERTAINTY_MEASURE_WITH_UNIT (LENGTH_MEASURE( 1.000000000000000082E-05 ), #120, 'distance_accuracy_value', 'NONE');
#110 = CIRCLE ( 'NONE', #80, 0.2222500000000000031 ) ;
#111 = SHAPE_DEFINITION_REPRESENTATION ( #211, #47 ) ;
#112 = ORIENTED_EDGE ( 'NONE', *, *, #136, .F. ) ;
#113 = DIRECTION ( 'NONE',  ( 0.000000000000000000, 1.000000000000000000, 0.000000000000000000 ) ) ;
#114 = PERSON_AND_ORGANIZATION ( #197, #24 ) ;
#115 = PRODUCT ( 'GSK-180-K', 'GSK-180-K', '', ( #234 ) ) ;
#116 = APPROVAL ( #214, 'UNSPECIFIED' ) ;
#117 = CARTESIAN_POINT ( 'NONE',  ( 0.000000000000000000, 0.04950000000000000233, 0.000000000000000000 ) ) ;
#118 = CIRCLE ( 'NONE', #167, 0.2222500000000000031 ) ;
#119 = ORIENTED_EDGE ( 'NONE', *, *, #26, .T. ) ;
#120 =( CONVERSION_BASED_UNIT ( 'INCH', #62 ) LENGTH_UNIT ( ) NAMED_UNIT ( #50 ) );
#121 = CC_DESIGN_SECURITY_CLASSIFICATION ( #57, ( #21 ) ) ;
#122 = CARTESIAN_POINT ( 'NONE',  ( 0.000000000000000000, -0.04950000000000000233, 0.000000000000000000 ) ) ;
#123 = CALENDAR_DATE ( 2025, 26, 8 ) ;
#124 = FACE_OUTER_BOUND ( 'NONE', #95, .T. ) ;
#125 =( NAMED_UNIT ( * ) SI_UNIT ( $, .STERADIAN. ) SOLID_ANGLE_UNIT ( ) );
#126 = MANIFOLD_SOLID_BREP ( 'Boss-Extrude1', #240 ) ;
#127 = APPROVAL_ROLE ( '' ) ;
#128 = PERSON_AND_ORGANIZATION_ROLE ( 'creator' ) ;
#129 = APPROVAL_PERSON_ORGANIZATION ( #217, #116, #127 ) ;
#130 = EDGE_CURVE ( 'NONE', #237, #187, #245, .T. ) ;
#131 = ORIENTED_EDGE ( 'NONE', *, *, #74, .F. ) ;
#132 = CC_DESIGN_DATE_AND_TIME_ASSIGNMENT ( #35, #188, ( #5 ) ) ;
#133 = APPROVAL_DATE_TIME ( #76, #198 ) ;
#134 = AXIS2_PLACEMENT_3D ( 'NONE', #199, #100, #31 ) ;
#135 = VERTEX_POINT ( 'NONE', #154 ) ;
#136 = EDGE_CURVE ( 'NONE', #166, #213, #221, .T. ) ;
#137 = ORIENTED_EDGE ( 'NONE', *, *, #239, .F. ) ;
#138 = DIRECTION ( 'NONE',  ( 0.000000000000000000, 1.000000000000000000, 0.000000000000000000 ) ) ;
#139 = VECTOR ( 'NONE', #85, 39.37007874015748143 ) ;
#140 = AXIS2_PLACEMENT_3D ( 'NONE', #156, #195, #84 ) ;
#141 = PRODUCT_RELATED_PRODUCT_CATEGORY ( 'detail', '', ( #115 ) ) ;
#142 = DIRECTION ( 'NONE',  ( 0.000000000000000000, 1.000000000000000000, 0.000000000000000000 ) ) ;
#143 = EDGE_CURVE ( 'NONE', #135, #213, #110, .T. ) ;
#144 = ORIENTED_EDGE ( 'NONE', *, *, #130, .F. ) ;
#145 = ORIENTED_EDGE ( 'NONE', *, *, #204, .T. ) ;
#146 = PERSON_AND_ORGANIZATION_ROLE ( 'classification_officer' ) ;
#147 = AXIS2_PLACEMENT_3D ( 'NONE', #177, #53, #33 ) ;
#148 = PERSON_AND_ORGANIZATION ( #197, #24 ) ;
#149 = CIRCLE ( 'NONE', #215, 0.2222500000000000031 ) ;
#150 = VERTEX_POINT ( 'NONE', #52 ) ;
#151 = ADVANCED_FACE ( 'NONE', ( #124 ), #66, .F. ) ;
#152 = CYLINDRICAL_SURFACE ( 'NONE', #87, 0.1600000000000000033 ) ;
#153 = ORIENTED_EDGE ( 'NONE', *, *, #65, .T. ) ;
#154 = CARTESIAN_POINT ( 'NONE',  ( 0.000000000000000000, -0.04950000000000000233, -0.2222500000000000031 ) ) ;
#155 = CARTESIAN_POINT ( 'NONE',  ( 0.000000000000000000, 0.04950000000000000233, 0.000000000000000000 ) ) ;
#156 = CARTESIAN_POINT ( 'NONE',  ( 0.000000000000000000, 0.04950000000000000233, 0.000000000000000000 ) ) ;
#157 = ADVANCED_FACE ( 'NONE', ( #238 ), #152, .F. ) ;
#158 = DIRECTION ( 'NONE',  ( -0.000000000000000000, -1.000000000000000000, -0.000000000000000000 ) ) ;
#159 = CARTESIAN_POINT ( 'NONE',  ( 0.000000000000000000, 0.04950000000000000233, 0.000000000000000000 ) ) ;
#160 = DIRECTION ( 'NONE',  ( 0.000000000000000000, 0.000000000000000000, -1.000000000000000000 ) ) ;
#161 = FACE_OUTER_BOUND ( 'NONE', #2, .T. ) ;
#162 = AXIS2_PLACEMENT_3D ( 'NONE', #249, #168, #105 ) ;
#163 = CC_DESIGN_DATE_AND_TIME_ASSIGNMENT ( #7, #93, ( #57 ) ) ;
#164 = APPROVAL_PERSON_ORGANIZATION ( #114, #198, #216 ) ;
#165 = FACE_OUTER_BOUND ( 'NONE', #236, .T. ) ;
#166 = VERTEX_POINT ( 'NONE', #206 ) ;
#167 = AXIS2_PLACEMENT_3D ( 'NONE', #159, #86, #176 ) ;
#168 = DIRECTION ( 'NONE',  ( 0.000000000000000000, 0.000000000000000000, 1.000000000000000000 ) ) ;
#169 = APPROVAL_DATE_TIME ( #45, #43 ) ;
#170 = LOCAL_TIME ( 11, 51, 34.00000000000000000, #98 ) ;
#171 = LOCAL_TIME ( 11, 51, 34.00000000000000000, #212 ) ;
#172 = ORIENTED_EDGE ( 'NONE', *, *, #12, .T. ) ;
#173 = PERSON_AND_ORGANIZATION ( #197, #24 ) ;
#174 = CARTESIAN_POINT ( 'NONE',  ( 2.721777511104992639E-17, 0.04950000000000000233, 0.2222500000000000031 ) ) ;
#175 = CIRCLE ( 'NONE', #218, 0.1600000000000000033 ) ;
#176 = DIRECTION ( 'NONE',  ( 0.000000000000000000, 0.000000000000000000, 1.000000000000000000 ) ) ;
#177 = CARTESIAN_POINT ( 'NONE',  ( 0.000000000000000000, 0.04950000000000000233, 0.000000000000000000 ) ) ;
#178 = AXIS2_PLACEMENT_3D ( 'NONE', #82, #138, #242 ) ;
#179 = CYLINDRICAL_SURFACE ( 'NONE', #183, 0.2222500000000000031 ) ;
#180 = CC_DESIGN_APPROVAL ( #116, ( #5 ) ) ;
#181 = DIRECTION ( 'NONE',  ( 0.000000000000000000, 1.000000000000000000, 0.000000000000000000 ) ) ;
#182 = CARTESIAN_POINT ( 'NONE',  ( 0.000000000000000000, 0.04950000000000000233, -0.1600000000000000033 ) ) ;
#183 = AXIS2_PLACEMENT_3D ( 'NONE', #246, #158, #223 ) ;
#184 = DIRECTION ( 'NONE',  ( 0.000000000000000000, 0.000000000000000000, 1.000000000000000000 ) ) ;
#185 = PERSON_AND_ORGANIZATION ( #197, #24 ) ;
#186 = EDGE_LOOP ( 'NONE', ( #153, #90 ) ) ;
#187 = VERTEX_POINT ( 'NONE', #203 ) ;
#188 = DATE_TIME_ROLE ( 'creation_date' ) ;
#189 = EDGE_CURVE ( 'NONE', #25, #150, #175, .T. ) ;
#190 = CALENDAR_DATE ( 2025, 26, 8 ) ;
#191 = ORIENTED_EDGE ( 'NONE', *, *, #65, .F. ) ;
#192 = AXIS2_PLACEMENT_3D ( 'NONE', #155, #56, #160 ) ;
#193 = CARTESIAN_POINT ( 'NONE',  ( 0.000000000000000000, 0.04950000000000000233, 0.000000000000000000 ) ) ;
#194 = ORIENTED_EDGE ( 'NONE', *, *, #74, .T. ) ;
#195 = DIRECTION ( 'NONE',  ( 0.000000000000000000, 1.000000000000000000, 0.000000000000000000 ) ) ;
#196 = DIRECTION ( 'NONE',  ( -0.000000000000000000, -1.000000000000000000, -0.000000000000000000 ) ) ;
#197 = PERSON ( 'UNSPECIFIED', 'UNSPECIFIED', 'UNSPECIFIED', ('UNSPECIFIED'), ('UNSPECIFIED'), ('UNSPECIFIED') ) ;
#198 = APPROVAL ( #73, 'UNSPECIFIED' ) ;
#199 = CARTESIAN_POINT ( 'NONE',  ( 0.000000000000000000, 0.04950000000000000233, 0.000000000000000000 ) ) ;
#200 = FACE_BOUND ( 'NONE', #6, .T. ) ;
#201 = ORIENTED_EDGE ( 'NONE', *, *, #136, .T. ) ;
#202 = CARTESIAN_POINT ( 'NONE',  ( 0.000000000000000000, 0.04950000000000000233, 0.000000000000000000 ) ) ;
#203 = CARTESIAN_POINT ( 'NONE',  ( 1.959434878635765415E-17, 0.04950000000000000233, 0.1600000000000000033 ) ) ;
#204 = EDGE_CURVE ( 'NONE', #213, #135, #149, .T. ) ;
#205 = LINE ( 'NONE', #55, #139 ) ;
#206 = CARTESIAN_POINT ( 'NONE',  ( 2.721777511104992639E-17, 0.04950000000000000233, 0.2222500000000000031 ) ) ;
#207 = ORIENTED_EDGE ( 'NONE', *, *, #70, .F. ) ;
#208 =( NAMED_UNIT ( * ) PLANE_ANGLE_UNIT ( ) SI_UNIT ( $, .RADIAN. ) );
#209 = CARTESIAN_POINT ( 'NONE',  ( 0.000000000000000000, 0.04950000000000000233, -0.2222500000000000031 ) ) ;
#210 = APPLICATION_CONTEXT ( 'configuration controlled 3d designs of mechanical parts and assemblies' ) ;
#211 = PRODUCT_DEFINITION_SHAPE ( 'NONE', 'NONE',  #5 ) ;
#212 = COORDINATED_UNIVERSAL_TIME_OFFSET ( 5, 0, .BEHIND. ) ;
#213 = VERTEX_POINT ( 'NONE', #251 ) ;
#214 = APPROVAL_STATUS ( 'not_yet_approved' ) ;
#215 = AXIS2_PLACEMENT_3D ( 'NONE', #231, #22, #184 ) ;
#216 = APPROVAL_ROLE ( '' ) ;
#217 = PERSON_AND_ORGANIZATION ( #197, #24 ) ;
#218 = AXIS2_PLACEMENT_3D ( 'NONE', #103, #89, #88 ) ;
#219 = COORDINATED_UNIVERSAL_TIME_OFFSET ( 5, 0, .BEHIND. ) ;
#220 = CC_DESIGN_APPROVAL ( #43, ( #57 ) ) ;
#221 = LINE ( 'NONE', #174, #77 ) ;
#222 = ORIENTED_EDGE ( 'NONE', *, *, #12, .F. ) ;
#223 = DIRECTION ( 'NONE',  ( 0.000000000000000000, 0.000000000000000000, -1.000000000000000000 ) ) ;
#224 = DESIGN_CONTEXT ( 'detailed design', #210, 'design' ) ;
#225 = COORDINATED_UNIVERSAL_TIME_OFFSET ( 5, 0, .BEHIND. ) ;
#226 = DIRECTION ( 'NONE',  ( -0.000000000000000000, -1.000000000000000000, -0.000000000000000000 ) ) ;
#227 = CARTESIAN_POINT ( 'NONE',  ( 1.959434878635765415E-17, 0.04950000000000000233, 0.1600000000000000033 ) ) ;
#228 = AXIS2_PLACEMENT_3D ( 'NONE', #122, #38, #37 ) ;
#229 = APPROVAL_DATE_TIME ( #28, #116 ) ;
#230 = ORIENTED_EDGE ( 'NONE', *, *, #189, .F. ) ;
#231 = CARTESIAN_POINT ( 'NONE',  ( 0.000000000000000000, -0.04950000000000000233, 0.000000000000000000 ) ) ;
#232 = COORDINATED_UNIVERSAL_TIME_OFFSET ( 5, 0, .BEHIND. ) ;
#233 = CALENDAR_DATE ( 2025, 26, 8 ) ;
#234 = MECHANICAL_CONTEXT ( 'NONE', #44, 'mechanical' ) ;
#235 = LINE ( 'NONE', #227, #72 ) ;
#236 = EDGE_LOOP ( 'NONE', ( #112, #191, #194, #36 ) ) ;
#237 = VERTEX_POINT ( 'NONE', #182 ) ;
#238 = FACE_OUTER_BOUND ( 'NONE', #51, .T. ) ;
#239 = EDGE_CURVE ( 'NONE', #150, #25, #41, .T. ) ;
#240 = CLOSED_SHELL ( 'NONE', ( #151, #78, #11, #81, #32, #157 ) ) ;
#241 = CALENDAR_DATE ( 2025, 26, 8 ) ;
#242 = DIRECTION ( 'NONE',  ( 0.000000000000000000, -0.000000000000000000, 1.000000000000000000 ) ) ;
#243 = CC_DESIGN_PERSON_AND_ORGANIZATION_ASSIGNMENT ( #64, #128, ( #5 ) ) ;
#244 = PLANE ( 'NONE',  #178 ) ;
#245 = CIRCLE ( 'NONE', #140, 0.1600000000000000033 ) ;
#246 = CARTESIAN_POINT ( 'NONE',  ( 0.000000000000000000, 0.04950000000000000233, 0.000000000000000000 ) ) ;
#247 = ORIENTED_EDGE ( 'NONE', *, *, #189, .T. ) ;
#248 =( LENGTH_UNIT ( ) NAMED_UNIT ( * ) SI_UNIT ( $, .METRE. ) );
#249 = CARTESIAN_POINT ( 'NONE',  ( 0.000000000000000000, 0.000000000000000000, 0.000000000000000000 ) ) ;
#250 = VERTEX_POINT ( 'NONE', #209 ) ;
#251 = CARTESIAN_POINT ( 'NONE',  ( 2.721777511104992639E-17, -0.04950000000000000233, 0.2222500000000000031 ) ) ;
#252 = DIRECTION ( 'NONE',  ( 0.000000000000000000, 0.000000000000000000, 1.000000000000000000 ) ) ;
ENDSEC;
END-ISO-10303-21;
