ISO-10303-21;
HEADER;
FILE_DESCRIPTION (( 'STEP AP203' ),
    '1' );
FILE_NAME ('GSK-180-T.STEP',
    '2025-08-26T16:38:47',
    ( '' ),
    ( '' ),
    'SwSTEP 2.0',
    'SolidWorks 2018',
    '' );
FILE_SCHEMA (( 'CONFIG_CONTROL_DESIGN' ));
ENDSEC;

DATA;
#1 = CC_DESIGN_PERSON_AND_ORGANIZATION_ASSIGNMENT ( #30, #233, ( #25 ) ) ;
#2 = ADVANCED_BREP_SHAPE_REPRESENTATION ( 'GSK-180-T', ( #171, #48 ), #116 ) ;
#3 = EDGE_LOOP ( 'NONE', ( #172, #68 ) ) ;
#4 = AXIS2_PLACEMENT_3D ( 'NONE', #180, #96, #227 ) ;
#5 = DATE_AND_TIME ( #191, #175 ) ;
#6 = FACE_OUTER_BOUND ( 'NONE', #169, .T. ) ;
#7 = ORIENTED_EDGE ( 'NONE', *, *, #196, .T. ) ;
#8 = AXIS2_PLACEMENT_3D ( 'NONE', #82, #132, #207 ) ;
#9 = CYLINDRICAL_SURFACE ( 'NONE', #206, 0.2222500000000000586 ) ;
#10 = CLOSED_SHELL ( 'NONE', ( #35, #73, #245, #219, #140, #53 ) ) ;
#11 = EDGE_LOOP ( 'NONE', ( #159, #22, #28, #150 ) ) ;
#12 = CC_DESIGN_PERSON_AND_ORGANIZATION_ASSIGNMENT ( #218, #49, ( #25 ) ) ;
#13 = CARTESIAN_POINT ( 'NONE',  ( 1.959434878635765415E-17, 0.000000000000000000, 0.1600000000000000033 ) ) ;
#14 = PERSON_AND_ORGANIZATION ( #156, #75 ) ;
#15 = LENGTH_MEASURE_WITH_UNIT ( LENGTH_MEASURE( 0.02539999999999999897 ), #250 );
#16 = ORIENTED_EDGE ( 'NONE', *, *, #251, .F. ) ;
#17 =( CONVERSION_BASED_UNIT ( 'INCH', #15 ) LENGTH_UNIT ( ) NAMED_UNIT ( #138 ) );
#18 = PLANE ( 'NONE',  #203 ) ;
#19 = DIRECTION ( 'NONE',  ( 0.000000000000000000, 0.000000000000000000, 1.000000000000000000 ) ) ;
#20 = CYLINDRICAL_SURFACE ( 'NONE', #215, 0.2222500000000000586 ) ;
#21 = DIRECTION ( 'NONE',  ( 0.000000000000000000, 0.000000000000000000, 1.000000000000000000 ) ) ;
#22 = ORIENTED_EDGE ( 'NONE', *, *, #121, .T. ) ;
#23 = DIRECTION ( 'NONE',  ( 0.000000000000000000, -0.000000000000000000, 1.000000000000000000 ) ) ;
#24 = APPLICATION_PROTOCOL_DEFINITION ( 'international standard', 'config_control_design', 1994, #45 ) ;
#25 = PRODUCT_DEFINITION_FORMATION_WITH_SPECIFIED_SOURCE ( 'ANY', '', #86, .NOT_KNOWN. ) ;
#26 = LOCAL_TIME ( 12, 38, 47.00000000000000000, #216 ) ;
#27 = VECTOR ( 'NONE', #252, 39.37007874015748143 ) ;
#28 = ORIENTED_EDGE ( 'NONE', *, *, #188, .F. ) ;
#29 = EDGE_CURVE ( 'NONE', #204, #176, #153, .T. ) ;
#30 = PERSON_AND_ORGANIZATION ( #156, #75 ) ;
#31 = APPROVAL ( #83, 'UNSPECIFIED' ) ;
#32 = VECTOR ( 'NONE', #107, 39.37007874015748143 ) ;
#33 = ORIENTED_EDGE ( 'NONE', *, *, #220, .T. ) ;
#34 = AXIS2_PLACEMENT_3D ( 'NONE', #205, #197, #21 ) ;
#35 = ADVANCED_FACE ( 'NONE', ( #190 ), #161, .F. ) ;
#36 = FACE_OUTER_BOUND ( 'NONE', #168, .T. ) ;
#37 = CC_DESIGN_DATE_AND_TIME_ASSIGNMENT ( #106, #155, ( #72 ) ) ;
#38 = CARTESIAN_POINT ( 'NONE',  ( 0.000000000000000000, 0.000000000000000000, -0.2222500000000000586 ) ) ;
#39 = PERSON_AND_ORGANIZATION ( #156, #75 ) ;
#40 = ORIENTED_EDGE ( 'NONE', *, *, #29, .T. ) ;
#41 = AXIS2_PLACEMENT_3D ( 'NONE', #109, #129, #19 ) ;
#42 =( NAMED_UNIT ( * ) PLANE_ANGLE_UNIT ( ) SI_UNIT ( $, .RADIAN. ) );
#43 = CARTESIAN_POINT ( 'NONE',  ( 0.000000000000000000, 0.09900000000000000466, -0.1600000000000000033 ) ) ;
#44 = CARTESIAN_POINT ( 'NONE',  ( 0.000000000000000000, 0.09900000000000000466, 0.000000000000000000 ) ) ;
#45 = APPLICATION_CONTEXT ( 'configuration controlled 3d designs of mechanical parts and assemblies' ) ;
#46 = AXIS2_PLACEMENT_3D ( 'NONE', #108, #92, #246 ) ;
#47 = APPROVAL_PERSON_ORGANIZATION ( #223, #173, #214 ) ;
#48 = AXIS2_PLACEMENT_3D ( 'NONE', #144, #208, #135 ) ;
#49 = PERSON_AND_ORGANIZATION_ROLE ( 'creator' ) ;
#50 = PERSON_AND_ORGANIZATION_ROLE ( 'classification_officer' ) ;
#51 = AXIS2_PLACEMENT_3D ( 'NONE', #57, #202, #249 ) ;
#52 = CIRCLE ( 'NONE', #222, 0.1600000000000000033 ) ;
#53 = ADVANCED_FACE ( 'NONE', ( #103 ), #85, .F. ) ;
#54 = APPROVAL ( #186, 'UNSPECIFIED' ) ;
#55 = DIRECTION ( 'NONE',  ( 0.000000000000000000, -0.000000000000000000, 1.000000000000000000 ) ) ;
#56 = ORIENTED_EDGE ( 'NONE', *, *, #244, .T. ) ;
#57 = CARTESIAN_POINT ( 'NONE',  ( 0.000000000000000000, 0.09900000000000000466, 0.000000000000000000 ) ) ;
#58 = AXIS2_PLACEMENT_3D ( 'NONE', #181, #79, #55 ) ;
#59 = CARTESIAN_POINT ( 'NONE',  ( 2.721777511104993564E-17, 0.09900000000000000466, 0.2222500000000000586 ) ) ;
#60 = DIRECTION ( 'NONE',  ( 0.000000000000000000, 0.000000000000000000, 1.000000000000000000 ) ) ;
#61 = ORIENTED_EDGE ( 'NONE', *, *, #178, .F. ) ;
#62 = DIRECTION ( 'NONE',  ( -0.000000000000000000, -1.000000000000000000, -0.000000000000000000 ) ) ;
#63 = SECURITY_CLASSIFICATION_LEVEL ( 'unclassified' ) ;
#64 = COORDINATED_UNIVERSAL_TIME_OFFSET ( 5, 0, .BEHIND. ) ;
#65 = VERTEX_POINT ( 'NONE', #38 ) ;
#66 = DATE_TIME_ROLE ( 'creation_date' ) ;
#67 = CALENDAR_DATE ( 2025, 26, 8 ) ;
#68 = ORIENTED_EDGE ( 'NONE', *, *, #29, .F. ) ;
#69 = APPROVAL_DATE_TIME ( #102, #31 ) ;
#70 = ORIENTED_EDGE ( 'NONE', *, *, #134, .T. ) ;
#71 = AXIS2_PLACEMENT_3D ( 'NONE', #128, #81, #60 ) ;
#72 = SECURITY_CLASSIFICATION ( '', '', #63 ) ;
#73 = ADVANCED_FACE ( 'NONE', ( #89 ), #20, .T. ) ;
#74 = ORIENTED_EDGE ( 'NONE', *, *, #244, .F. ) ;
#75 = ORGANIZATION ( 'UNSPECIFIED', 'UNSPECIFIED', '' ) ;
#76 = CARTESIAN_POINT ( 'NONE',  ( 2.721777511104993564E-17, 0.09900000000000000466, 0.2222500000000000586 ) ) ;
#77 = ORIENTED_EDGE ( 'NONE', *, *, #209, .F. ) ;
#78 = CARTESIAN_POINT ( 'NONE',  ( 0.000000000000000000, 0.000000000000000000, 0.000000000000000000 ) ) ;
#79 = DIRECTION ( 'NONE',  ( 0.000000000000000000, 1.000000000000000000, 0.000000000000000000 ) ) ;
#80 = PERSON_AND_ORGANIZATION ( #156, #75 ) ;
#81 = DIRECTION ( 'NONE',  ( 0.000000000000000000, 1.000000000000000000, 0.000000000000000000 ) ) ;
#82 = CARTESIAN_POINT ( 'NONE',  ( 0.000000000000000000, 0.000000000000000000, 0.000000000000000000 ) ) ;
#83 = APPROVAL_STATUS ( 'not_yet_approved' ) ;
#84 = CIRCLE ( 'NONE', #201, 0.2222500000000000586 ) ;
#85 = CYLINDRICAL_SURFACE ( 'NONE', #46, 0.1600000000000000033 ) ;
#86 = PRODUCT ( 'GSK-180-T', 'GSK-180-T', '', ( #187 ) ) ;
#87 = PRODUCT_DEFINITION_SHAPE ( 'NONE', 'NONE',  #137 ) ;
#88 = FACE_OUTER_BOUND ( 'NONE', #185, .T. ) ;
#89 = FACE_OUTER_BOUND ( 'NONE', #165, .T. ) ;
#90 = DIRECTION ( 'NONE',  ( 0.000000000000000000, 0.000000000000000000, -1.000000000000000000 ) ) ;
#91 = SHAPE_DEFINITION_REPRESENTATION ( #87, #2 ) ;
#92 = DIRECTION ( 'NONE',  ( -0.000000000000000000, -1.000000000000000000, -0.000000000000000000 ) ) ;
#93 = CARTESIAN_POINT ( 'NONE',  ( 0.000000000000000000, 0.000000000000000000, -0.1600000000000000033 ) ) ;
#94 = LINE ( 'NONE', #43, #130 ) ;
#95 = ORIENTED_EDGE ( 'NONE', *, *, #231, .T. ) ;
#96 = DIRECTION ( 'NONE',  ( 0.000000000000000000, 1.000000000000000000, 0.000000000000000000 ) ) ;
#97 = APPLICATION_CONTEXT ( 'configuration controlled 3d designs of mechanical parts and assemblies' ) ;
#98 = PERSON_AND_ORGANIZATION_ROLE ( 'design_owner' ) ;
#99 = ORIENTED_EDGE ( 'NONE', *, *, #178, .T. ) ;
#100 = CALENDAR_DATE ( 2025, 26, 8 ) ;
#101 = CIRCLE ( 'NONE', #71, 0.1600000000000000033 ) ;
#102 = DATE_AND_TIME ( #120, #177 ) ;
#103 = FACE_OUTER_BOUND ( 'NONE', #111, .T. ) ;
#104 = CC_DESIGN_PERSON_AND_ORGANIZATION_ASSIGNMENT ( #164, #98, ( #86 ) ) ;
#105 = VERTEX_POINT ( 'NONE', #124 ) ;
#106 = DATE_AND_TIME ( #100, #26 ) ;
#107 = DIRECTION ( 'NONE',  ( -0.000000000000000000, -1.000000000000000000, -0.000000000000000000 ) ) ;
#108 = CARTESIAN_POINT ( 'NONE',  ( 0.000000000000000000, 0.09900000000000000466, 0.000000000000000000 ) ) ;
#109 = CARTESIAN_POINT ( 'NONE',  ( 0.000000000000000000, 0.09900000000000000466, 0.000000000000000000 ) ) ;
#110 = CIRCLE ( 'NONE', #4, 0.2222500000000000586 ) ;
#111 = EDGE_LOOP ( 'NONE', ( #123, #40, #33, #154 ) ) ;
#112 = CARTESIAN_POINT ( 'NONE',  ( 0.000000000000000000, 0.09900000000000000466, -0.2222500000000000586 ) ) ;
#113 = CARTESIAN_POINT ( 'NONE',  ( 0.000000000000000000, 0.09900000000000000466, 0.000000000000000000 ) ) ;
#114 = PERSON_AND_ORGANIZATION ( #156, #75 ) ;
#115 = DIRECTION ( 'NONE',  ( 0.000000000000000000, 0.000000000000000000, 1.000000000000000000 ) ) ;
#116 =( GEOMETRIC_REPRESENTATION_CONTEXT ( 3 ) GLOBAL_UNCERTAINTY_ASSIGNED_CONTEXT ( ( #229 ) ) GLOBAL_UNIT_ASSIGNED_CONTEXT ( ( #17, #42, #166 ) ) REPRESENTATION_CONTEXT ( 'NONE', 'WORKASPACE' ) );
#117 = CARTESIAN_POINT ( 'NONE',  ( 0.000000000000000000, 0.09900000000000000466, 0.000000000000000000 ) ) ;
#118 = ORIENTED_EDGE ( 'NONE', *, *, #188, .T. ) ;
#119 = APPROVAL_ROLE ( '' ) ;
#120 = CALENDAR_DATE ( 2025, 26, 8 ) ;
#121 = EDGE_CURVE ( 'NONE', #204, #136, #221, .T. ) ;
#122 = AXIS2_PLACEMENT_3D ( 'NONE', #117, #125, #149 ) ;
#123 = ORIENTED_EDGE ( 'NONE', *, *, #121, .F. ) ;
#124 = CARTESIAN_POINT ( 'NONE',  ( 2.721777511104993564E-17, 0.000000000000000000, 0.2222500000000000586 ) ) ;
#125 = DIRECTION ( 'NONE',  ( -0.000000000000000000, -1.000000000000000000, -0.000000000000000000 ) ) ;
#126 = LINE ( 'NONE', #112, #27 ) ;
#127 = DIRECTION ( 'NONE',  ( 0.000000000000000000, 0.000000000000000000, 1.000000000000000000 ) ) ;
#128 = CARTESIAN_POINT ( 'NONE',  ( 0.000000000000000000, 0.09900000000000000466, 0.000000000000000000 ) ) ;
#129 = DIRECTION ( 'NONE',  ( 0.000000000000000000, 1.000000000000000000, 0.000000000000000000 ) ) ;
#130 = VECTOR ( 'NONE', #225, 39.37007874015748143 ) ;
#131 = EDGE_LOOP ( 'NONE', ( #118, #70 ) ) ;
#132 = DIRECTION ( 'NONE',  ( 0.000000000000000000, 1.000000000000000000, 0.000000000000000000 ) ) ;
#133 = CIRCLE ( 'NONE', #8, 0.1600000000000000033 ) ;
#134 = EDGE_CURVE ( 'NONE', #136, #217, #133, .T. ) ;
#135 = DIRECTION ( 'NONE',  ( 1.000000000000000000, 0.000000000000000000, 0.000000000000000000 ) ) ;
#136 = VERTEX_POINT ( 'NONE', #13 ) ;
#137 = PRODUCT_DEFINITION ( 'UNKNOWN', '', #25, #237 ) ;
#138 = DIMENSIONAL_EXPONENTS ( 1.000000000000000000, 0.000000000000000000, 0.000000000000000000, 0.000000000000000000, 0.000000000000000000, 0.000000000000000000, 0.000000000000000000 ) ;
#139 = FACE_BOUND ( 'NONE', #3, .T. ) ;
#140 = ADVANCED_FACE ( 'NONE', ( #36 ), #9, .T. ) ;
#141 = CARTESIAN_POINT ( 'NONE',  ( 0.000000000000000000, 0.09900000000000000466, 0.000000000000000000 ) ) ;
#142 = FACE_BOUND ( 'NONE', #131, .T. ) ;
#143 = PRODUCT_RELATED_PRODUCT_CATEGORY ( 'detail', '', ( #86 ) ) ;
#144 = CARTESIAN_POINT ( 'NONE',  ( 0.000000000000000000, 0.000000000000000000, 0.000000000000000000 ) ) ;
#145 = CALENDAR_DATE ( 2025, 26, 8 ) ;
#146 = PLANE ( 'NONE',  #58 ) ;
#147 = ORIENTED_EDGE ( 'NONE', *, *, #231, .F. ) ;
#148 = DIRECTION ( 'NONE',  ( 0.000000000000000000, 1.000000000000000000, 0.000000000000000000 ) ) ;
#149 = DIRECTION ( 'NONE',  ( 0.000000000000000000, 0.000000000000000000, -1.000000000000000000 ) ) ;
#150 = ORIENTED_EDGE ( 'NONE', *, *, #220, .F. ) ;
#151 = APPROVAL_STATUS ( 'not_yet_approved' ) ;
#152 = CC_DESIGN_APPROVAL ( #173, ( #72 ) ) ;
#153 = CIRCLE ( 'NONE', #34, 0.1600000000000000033 ) ;
#154 = ORIENTED_EDGE ( 'NONE', *, *, #134, .F. ) ;
#155 = DATE_TIME_ROLE ( 'classification_date' ) ;
#156 = PERSON ( 'UNSPECIFIED', 'UNSPECIFIED', 'UNSPECIFIED', ('UNSPECIFIED'), ('UNSPECIFIED'), ('UNSPECIFIED') ) ;
#157 = CC_DESIGN_SECURITY_CLASSIFICATION ( #72, ( #25 ) ) ;
#158 = APPROVAL_PERSON_ORGANIZATION ( #80, #31, #240 ) ;
#159 = ORIENTED_EDGE ( 'NONE', *, *, #234, .T. ) ;
#160 = LOCAL_TIME ( 12, 38, 47.00000000000000000, #211 ) ;
#161 = CYLINDRICAL_SURFACE ( 'NONE', #122, 0.1600000000000000033 ) ;
#162 = VERTEX_POINT ( 'NONE', #76 ) ;
#163 = APPROVAL_DATE_TIME ( #5, #173 ) ;
#164 = PERSON_AND_ORGANIZATION ( #156, #75 ) ;
#165 = EDGE_LOOP ( 'NONE', ( #77, #99, #7, #16 ) ) ;
#166 =( NAMED_UNIT ( * ) SI_UNIT ( $, .STERADIAN. ) SOLID_ANGLE_UNIT ( ) );
#167 = CARTESIAN_POINT ( 'NONE',  ( 0.000000000000000000, 0.09900000000000000466, -0.1600000000000000033 ) ) ;
#168 = EDGE_LOOP ( 'NONE', ( #61, #147, #192, #56 ) ) ;
#169 = EDGE_LOOP ( 'NONE', ( #95, #194 ) ) ;
#170 = CARTESIAN_POINT ( 'NONE',  ( 0.000000000000000000, 0.09900000000000000466, -0.2222500000000000586 ) ) ;
#171 = MANIFOLD_SOLID_BREP ( 'Boss-Extrude1', #10 ) ;
#172 = ORIENTED_EDGE ( 'NONE', *, *, #234, .F. ) ;
#173 = APPROVAL ( #151, 'UNSPECIFIED' ) ;
#174 = COORDINATED_UNIVERSAL_TIME_OFFSET ( 5, 0, .BEHIND. ) ;
#175 = LOCAL_TIME ( 12, 38, 47.00000000000000000, #64 ) ;
#176 = VERTEX_POINT ( 'NONE', #167 ) ;
#177 = LOCAL_TIME ( 12, 38, 47.00000000000000000, #174 ) ;
#178 = EDGE_CURVE ( 'NONE', #162, #105, #182, .T. ) ;
#179 = CC_DESIGN_DATE_AND_TIME_ASSIGNMENT ( #210, #66, ( #137 ) ) ;
#180 = CARTESIAN_POINT ( 'NONE',  ( 0.000000000000000000, 0.000000000000000000, 0.000000000000000000 ) ) ;
#181 = CARTESIAN_POINT ( 'NONE',  ( 0.000000000000000000, 0.000000000000000000, 0.000000000000000000 ) ) ;
#182 = LINE ( 'NONE', #59, #242 ) ;
#183 = APPLICATION_PROTOCOL_DEFINITION ( 'international standard', 'config_control_design', 1994, #97 ) ;
#184 = APPROVAL_DATE_TIME ( #243, #54 ) ;
#185 = EDGE_LOOP ( 'NONE', ( #74, #212 ) ) ;
#186 = APPROVAL_STATUS ( 'not_yet_approved' ) ;
#187 = MECHANICAL_CONTEXT ( 'NONE', #45, 'mechanical' ) ;
#188 = EDGE_CURVE ( 'NONE', #217, #136, #52, .T. ) ;
#189 = CIRCLE ( 'NONE', #51, 0.2222500000000000586 ) ;
#190 = FACE_OUTER_BOUND ( 'NONE', #11, .T. ) ;
#191 = CALENDAR_DATE ( 2025, 26, 8 ) ;
#192 = ORIENTED_EDGE ( 'NONE', *, *, #251, .T. ) ;
#193 = CC_DESIGN_APPROVAL ( #31, ( #25 ) ) ;
#194 = ORIENTED_EDGE ( 'NONE', *, *, #209, .T. ) ;
#195 = CC_DESIGN_PERSON_AND_ORGANIZATION_ASSIGNMENT ( #114, #241, ( #137 ) ) ;
#196 = EDGE_CURVE ( 'NONE', #105, #65, #110, .T. ) ;
#197 = DIRECTION ( 'NONE',  ( 0.000000000000000000, 1.000000000000000000, 0.000000000000000000 ) ) ;
#198 = CARTESIAN_POINT ( 'NONE',  ( 0.000000000000000000, 0.000000000000000000, 0.000000000000000000 ) ) ;
#199 = CIRCLE ( 'NONE', #41, 0.2222500000000000586 ) ;
#200 = CARTESIAN_POINT ( 'NONE',  ( 1.959434878635765415E-17, 0.09900000000000000466, 0.1600000000000000033 ) ) ;
#201 = AXIS2_PLACEMENT_3D ( 'NONE', #198, #148, #127 ) ;
#202 = DIRECTION ( 'NONE',  ( 0.000000000000000000, 1.000000000000000000, 0.000000000000000000 ) ) ;
#203 = AXIS2_PLACEMENT_3D ( 'NONE', #113, #230, #23 ) ;
#204 = VERTEX_POINT ( 'NONE', #200 ) ;
#205 = CARTESIAN_POINT ( 'NONE',  ( 0.000000000000000000, 0.09900000000000000466, 0.000000000000000000 ) ) ;
#206 = AXIS2_PLACEMENT_3D ( 'NONE', #44, #62, #235 ) ;
#207 = DIRECTION ( 'NONE',  ( 0.000000000000000000, 0.000000000000000000, 1.000000000000000000 ) ) ;
#208 = DIRECTION ( 'NONE',  ( 0.000000000000000000, 0.000000000000000000, 1.000000000000000000 ) ) ;
#209 = EDGE_CURVE ( 'NONE', #162, #239, #199, .T. ) ;
#210 = DATE_AND_TIME ( #67, #236 ) ;
#211 = COORDINATED_UNIVERSAL_TIME_OFFSET ( 5, 0, .BEHIND. ) ;
#212 = ORIENTED_EDGE ( 'NONE', *, *, #196, .F. ) ;
#213 = CC_DESIGN_PERSON_AND_ORGANIZATION_ASSIGNMENT ( #14, #50, ( #72 ) ) ;
#214 = APPROVAL_ROLE ( '' ) ;
#215 = AXIS2_PLACEMENT_3D ( 'NONE', #141, #248, #90 ) ;
#216 = COORDINATED_UNIVERSAL_TIME_OFFSET ( 5, 0, .BEHIND. ) ;
#217 = VERTEX_POINT ( 'NONE', #93 ) ;
#218 = PERSON_AND_ORGANIZATION ( #156, #75 ) ;
#219 = ADVANCED_FACE ( 'NONE', ( #88, #142 ), #146, .F. ) ;
#220 = EDGE_CURVE ( 'NONE', #176, #217, #94, .T. ) ;
#221 = LINE ( 'NONE', #224, #32 ) ;
#222 = AXIS2_PLACEMENT_3D ( 'NONE', #78, #226, #115 ) ;
#223 = PERSON_AND_ORGANIZATION ( #156, #75 ) ;
#224 = CARTESIAN_POINT ( 'NONE',  ( 1.959434878635765415E-17, 0.09900000000000000466, 0.1600000000000000033 ) ) ;
#225 = DIRECTION ( 'NONE',  ( -0.000000000000000000, -1.000000000000000000, -0.000000000000000000 ) ) ;
#226 = DIRECTION ( 'NONE',  ( 0.000000000000000000, 1.000000000000000000, 0.000000000000000000 ) ) ;
#227 = DIRECTION ( 'NONE',  ( 0.000000000000000000, 0.000000000000000000, 1.000000000000000000 ) ) ;
#228 = CC_DESIGN_APPROVAL ( #54, ( #137 ) ) ;
#229 = UNCERTAINTY_MEASURE_WITH_UNIT (LENGTH_MEASURE( 1.000000000000000082E-05 ), #17, 'distance_accuracy_value', 'NONE');
#230 = DIRECTION ( 'NONE',  ( 0.000000000000000000, 1.000000000000000000, 0.000000000000000000 ) ) ;
#231 = EDGE_CURVE ( 'NONE', #239, #162, #189, .T. ) ;
#232 = DIRECTION ( 'NONE',  ( -0.000000000000000000, -1.000000000000000000, -0.000000000000000000 ) ) ;
#233 = PERSON_AND_ORGANIZATION_ROLE ( 'design_supplier' ) ;
#234 = EDGE_CURVE ( 'NONE', #176, #204, #101, .T. ) ;
#235 = DIRECTION ( 'NONE',  ( 0.000000000000000000, 0.000000000000000000, -1.000000000000000000 ) ) ;
#236 = LOCAL_TIME ( 12, 38, 47.00000000000000000, #247 ) ;
#237 = DESIGN_CONTEXT ( 'detailed design', #97, 'design' ) ;
#238 = APPROVAL_PERSON_ORGANIZATION ( #39, #54, #119 ) ;
#239 = VERTEX_POINT ( 'NONE', #170 ) ;
#240 = APPROVAL_ROLE ( '' ) ;
#241 = PERSON_AND_ORGANIZATION_ROLE ( 'creator' ) ;
#242 = VECTOR ( 'NONE', #232, 39.37007874015748143 ) ;
#243 = DATE_AND_TIME ( #145, #160 ) ;
#244 = EDGE_CURVE ( 'NONE', #65, #105, #84, .T. ) ;
#245 = ADVANCED_FACE ( 'NONE', ( #6, #139 ), #18, .T. ) ;
#246 = DIRECTION ( 'NONE',  ( 0.000000000000000000, 0.000000000000000000, -1.000000000000000000 ) ) ;
#247 = COORDINATED_UNIVERSAL_TIME_OFFSET ( 5, 0, .BEHIND. ) ;
#248 = DIRECTION ( 'NONE',  ( -0.000000000000000000, -1.000000000000000000, -0.000000000000000000 ) ) ;
#249 = DIRECTION ( 'NONE',  ( 0.000000000000000000, 0.000000000000000000, 1.000000000000000000 ) ) ;
#250 =( LENGTH_UNIT ( ) NAMED_UNIT ( * ) SI_UNIT ( $, .METRE. ) );
#251 = EDGE_CURVE ( 'NONE', #239, #65, #126, .T. ) ;
#252 = DIRECTION ( 'NONE',  ( -0.000000000000000000, -1.000000000000000000, -0.000000000000000000 ) ) ;
ENDSEC;
END-ISO-10303-21;
