ISO-10303-21;
HEADER;
FILE_DESCRIPTION (( 'STEP AP203' ),
    '1' );
FILE_NAME ('GSK-32-K.STEP',
    '2025-08-26T16:47:25',
    ( '' ),
    ( '' ),
    'SwSTEP 2.0',
    'SolidWorks 2018',
    '' );
FILE_SCHEMA (( 'CONFIG_CONTROL_DESIGN' ));
ENDSEC;

DATA;
#1 = DATE_AND_TIME ( #220, #69 ) ;
#2 = VECTOR ( 'NONE', #150, 39.37007874015748143 ) ;
#3 = ORIENTED_EDGE ( 'NONE', *, *, #91, .T. ) ;
#4 = AXIS2_PLACEMENT_3D ( 'NONE', #234, #16, #89 ) ;
#5 = ORIENTED_EDGE ( 'NONE', *, *, #143, .T. ) ;
#6 = DIRECTION ( 'NONE',  ( 0.000000000000000000, 1.000000000000000000, 0.000000000000000000 ) ) ;
#7 = CYLINDRICAL_SURFACE ( 'NONE', #161, 0.1249999999999999029 ) ;
#8 = VERTEX_POINT ( 'NONE', #223 ) ;
#9 = AXIS2_PLACEMENT_3D ( 'NONE', #57, #109, #75 ) ;
#10 = DATE_TIME_ROLE ( 'classification_date' ) ;
#11 = DATE_AND_TIME ( #210, #84 ) ;
#12 = APPROVAL_ROLE ( '' ) ;
#13 = DIMENSIONAL_EXPONENTS ( 1.000000000000000000, 0.000000000000000000, 0.000000000000000000, 0.000000000000000000, 0.000000000000000000, 0.000000000000000000, 0.000000000000000000 ) ;
#14 = PERSON_AND_ORGANIZATION ( #178, #227 ) ;
#15 = EDGE_LOOP ( 'NONE', ( #64, #230 ) ) ;
#16 = DIRECTION ( 'NONE',  ( -0.000000000000000000, -1.000000000000000000, -0.000000000000000000 ) ) ;
#17 = CARTESIAN_POINT ( 'NONE',  ( 4.304633499002946236E-17, 0.04700000000000000705, 0.3514999999999999791 ) ) ;
#18 = CARTESIAN_POINT ( 'NONE',  ( 0.000000000000000000, 0.04700000000000000705, 0.000000000000000000 ) ) ;
#19 = LOCAL_TIME ( 12, 47, 25.00000000000000000, #224 ) ;
#20 = CIRCLE ( 'NONE', #156, 0.1249999999999999029 ) ;
#21 = CC_DESIGN_SECURITY_CLASSIFICATION ( #196, ( #105 ) ) ;
#22 = ORIENTED_EDGE ( 'NONE', *, *, #67, .F. ) ;
#23 = APPROVAL_DATE_TIME ( #1, #246 ) ;
#24 = ORIENTED_EDGE ( 'NONE', *, *, #52, .T. ) ;
#25 = DESIGN_CONTEXT ( 'detailed design', #208, 'design' ) ;
#26 = EDGE_CURVE ( 'NONE', #222, #144, #70, .T. ) ;
#27 = PERSON_AND_ORGANIZATION_ROLE ( 'classification_officer' ) ;
#28 = ORIENTED_EDGE ( 'NONE', *, *, #26, .T. ) ;
#29 = CYLINDRICAL_SURFACE ( 'NONE', #232, 0.3514999999999999791 ) ;
#30 = CARTESIAN_POINT ( 'NONE',  ( 0.000000000000000000, -0.04700000000000000705, -0.1249999999999999029 ) ) ;
#31 = APPROVAL ( #82, 'UNSPECIFIED' ) ;
#32 = LINE ( 'NONE', #226, #87 ) ;
#33 = CC_DESIGN_PERSON_AND_ORGANIZATION_ASSIGNMENT ( #78, #101, ( #81 ) ) ;
#34 = VERTEX_POINT ( 'NONE', #136 ) ;
#35 = DIRECTION ( 'NONE',  ( 0.000000000000000000, 0.000000000000000000, 1.000000000000000000 ) ) ;
#36 = APPLICATION_PROTOCOL_DEFINITION ( 'international standard', 'config_control_design', 1994, #152 ) ;
#37 = APPROVAL_PERSON_ORGANIZATION ( #213, #31, #12 ) ;
#38 =( NAMED_UNIT ( * ) PLANE_ANGLE_UNIT ( ) SI_UNIT ( $, .RADIAN. ) );
#39 = FACE_OUTER_BOUND ( 'NONE', #186, .T. ) ;
#40 = EDGE_LOOP ( 'NONE', ( #54, #214, #155, #22 ) ) ;
#41 = FACE_OUTER_BOUND ( 'NONE', #15, .T. ) ;
#42 = EDGE_CURVE ( 'NONE', #144, #222, #112, .T. ) ;
#43 = CARTESIAN_POINT ( 'NONE',  ( 0.000000000000000000, -0.04700000000000000705, 0.000000000000000000 ) ) ;
#44 = DIRECTION ( 'NONE',  ( 0.000000000000000000, 0.000000000000000000, 1.000000000000000000 ) ) ;
#45 = CARTESIAN_POINT ( 'NONE',  ( 0.000000000000000000, 0.04700000000000000705, 0.000000000000000000 ) ) ;
#46 = EDGE_LOOP ( 'NONE', ( #130, #5, #225, #115 ) ) ;
#47 = CC_DESIGN_DATE_AND_TIME_ASSIGNMENT ( #97, #66, ( #81 ) ) ;
#48 = APPROVAL_ROLE ( '' ) ;
#49 = ORIENTED_EDGE ( 'NONE', *, *, #42, .F. ) ;
#50 = DIRECTION ( 'NONE',  ( -0.000000000000000000, -1.000000000000000000, -0.000000000000000000 ) ) ;
#51 = DIRECTION ( 'NONE',  ( -0.000000000000000000, -1.000000000000000000, -0.000000000000000000 ) ) ;
#52 = EDGE_CURVE ( 'NONE', #144, #176, #79, .T. ) ;
#53 = CIRCLE ( 'NONE', #219, 0.3514999999999999791 ) ;
#54 = ORIENTED_EDGE ( 'NONE', *, *, #77, .T. ) ;
#55 = CARTESIAN_POINT ( 'NONE',  ( 0.000000000000000000, 0.04700000000000000705, 0.000000000000000000 ) ) ;
#56 = CARTESIAN_POINT ( 'NONE',  ( 1.530808498934190276E-17, -0.04700000000000000705, 0.1249999999999999029 ) ) ;
#57 = CARTESIAN_POINT ( 'NONE',  ( 0.000000000000000000, -0.04700000000000000705, 0.000000000000000000 ) ) ;
#58 = EDGE_CURVE ( 'NONE', #176, #8, #202, .T. ) ;
#59 = PLANE ( 'NONE',  #242 ) ;
#60 = DIRECTION ( 'NONE',  ( 0.000000000000000000, 0.000000000000000000, -1.000000000000000000 ) ) ;
#61 = CC_DESIGN_APPROVAL ( #167, ( #105 ) ) ;
#62 = FACE_OUTER_BOUND ( 'NONE', #88, .T. ) ;
#63 = EDGE_CURVE ( 'NONE', #8, #176, #53, .T. ) ;
#64 = ORIENTED_EDGE ( 'NONE', *, *, #58, .F. ) ;
#65 = PERSON_AND_ORGANIZATION ( #178, #227 ) ;
#66 = DATE_TIME_ROLE ( 'creation_date' ) ;
#67 = EDGE_CURVE ( 'NONE', #34, #123, #229, .T. ) ;
#68 = DIRECTION ( 'NONE',  ( -0.000000000000000000, -1.000000000000000000, -0.000000000000000000 ) ) ;
#69 = LOCAL_TIME ( 12, 47, 25.00000000000000000, #116 ) ;
#70 = CIRCLE ( 'NONE', #247, 0.3514999999999999791 ) ;
#71 = ORIENTED_EDGE ( 'NONE', *, *, #113, .T. ) ;
#72 = PLANE ( 'NONE',  #212 ) ;
#73 = DIRECTION ( 'NONE',  ( 0.000000000000000000, -0.000000000000000000, 1.000000000000000000 ) ) ;
#74 =( LENGTH_UNIT ( ) NAMED_UNIT ( * ) SI_UNIT ( $, .METRE. ) );
#75 = DIRECTION ( 'NONE',  ( 0.000000000000000000, 0.000000000000000000, 1.000000000000000000 ) ) ;
#76 = EDGE_LOOP ( 'NONE', ( #145, #3 ) ) ;
#77 = EDGE_CURVE ( 'NONE', #34, #141, #221, .T. ) ;
#78 = PERSON_AND_ORGANIZATION ( #178, #227 ) ;
#79 = LINE ( 'NONE', #137, #239 ) ;
#80 = DIRECTION ( 'NONE',  ( 0.000000000000000000, 0.000000000000000000, 1.000000000000000000 ) ) ;
#81 = PRODUCT_DEFINITION ( 'UNKNOWN', '', #105, #25 ) ;
#82 = APPROVAL_STATUS ( 'not_yet_approved' ) ;
#83 = ADVANCED_BREP_SHAPE_REPRESENTATION ( 'GSK-32-K', ( #189, #122 ), #96 ) ;
#84 = LOCAL_TIME ( 12, 47, 25.00000000000000000, #108 ) ;
#85 = CARTESIAN_POINT ( 'NONE',  ( 0.000000000000000000, 0.04700000000000000705, 0.000000000000000000 ) ) ;
#86 = MECHANICAL_CONTEXT ( 'NONE', #152, 'mechanical' ) ;
#87 = VECTOR ( 'NONE', #51, 39.37007874015748143 ) ;
#88 = EDGE_LOOP ( 'NONE', ( #153, #71, #204, #181 ) ) ;
#89 = DIRECTION ( 'NONE',  ( 0.000000000000000000, 0.000000000000000000, -1.000000000000000000 ) ) ;
#90 = CIRCLE ( 'NONE', #148, 0.1249999999999999029 ) ;
#91 = EDGE_CURVE ( 'NONE', #100, #123, #20, .T. ) ;
#92 = DIRECTION ( 'NONE',  ( -0.000000000000000000, -1.000000000000000000, -0.000000000000000000 ) ) ;
#93 = DIRECTION ( 'NONE',  ( 0.000000000000000000, 1.000000000000000000, 0.000000000000000000 ) ) ;
#94 = CARTESIAN_POINT ( 'NONE',  ( 0.000000000000000000, -0.04700000000000000705, -0.3514999999999999791 ) ) ;
#95 = FACE_BOUND ( 'NONE', #211, .T. ) ;
#96 =( GEOMETRIC_REPRESENTATION_CONTEXT ( 3 ) GLOBAL_UNCERTAINTY_ASSIGNED_CONTEXT ( ( #207 ) ) GLOBAL_UNIT_ASSIGNED_CONTEXT ( ( #236, #38, #198 ) ) REPRESENTATION_CONTEXT ( 'NONE', 'WORKASPACE' ) );
#97 = DATE_AND_TIME ( #217, #19 ) ;
#98 = CARTESIAN_POINT ( 'NONE',  ( 0.000000000000000000, 0.04700000000000000705, 0.000000000000000000 ) ) ;
#99 = ORIENTED_EDGE ( 'NONE', *, *, #58, .T. ) ;
#100 = VERTEX_POINT ( 'NONE', #56 ) ;
#101 = PERSON_AND_ORGANIZATION_ROLE ( 'creator' ) ;
#102 = APPLICATION_PROTOCOL_DEFINITION ( 'international standard', 'config_control_design', 1994, #208 ) ;
#103 = LOCAL_TIME ( 12, 47, 25.00000000000000000, #172 ) ;
#104 = ADVANCED_FACE ( 'NONE', ( #191, #95 ), #72, .T. ) ;
#105 = PRODUCT_DEFINITION_FORMATION_WITH_SPECIFIED_SOURCE ( 'ANY', '', #240, .NOT_KNOWN. ) ;
#106 = ADVANCED_FACE ( 'NONE', ( #62 ), #29, .T. ) ;
#107 = DIRECTION ( 'NONE',  ( 0.000000000000000000, 1.000000000000000000, 0.000000000000000000 ) ) ;
#108 = COORDINATED_UNIVERSAL_TIME_OFFSET ( 5, 0, .BEHIND. ) ;
#109 = DIRECTION ( 'NONE',  ( 0.000000000000000000, 1.000000000000000000, 0.000000000000000000 ) ) ;
#110 = DIRECTION ( 'NONE',  ( 0.000000000000000000, 0.000000000000000000, -1.000000000000000000 ) ) ;
#111 = APPROVAL_PERSON_ORGANIZATION ( #14, #246, #118 ) ;
#112 = CIRCLE ( 'NONE', #157, 0.3514999999999999791 ) ;
#113 = EDGE_CURVE ( 'NONE', #222, #8, #32, .T. ) ;
#114 = CALENDAR_DATE ( 2025, 26, 8 ) ;
#115 = ORIENTED_EDGE ( 'NONE', *, *, #91, .F. ) ;
#116 = COORDINATED_UNIVERSAL_TIME_OFFSET ( 5, 0, .BEHIND. ) ;
#117 = CC_DESIGN_PERSON_AND_ORGANIZATION_ASSIGNMENT ( #65, #162, ( #105 ) ) ;
#118 = APPROVAL_ROLE ( '' ) ;
#119 = CARTESIAN_POINT ( 'NONE',  ( 1.530808498934190276E-17, 0.04700000000000000705, 0.1249999999999999029 ) ) ;
#120 = DATE_AND_TIME ( #180, #127 ) ;
#121 = SHAPE_DEFINITION_REPRESENTATION ( #165, #83 ) ;
#122 = AXIS2_PLACEMENT_3D ( 'NONE', #170, #235, #252 ) ;
#123 = VERTEX_POINT ( 'NONE', #30 ) ;
#124 = CLOSED_SHELL ( 'NONE', ( #149, #106, #104, #194, #146, #233 ) ) ;
#125 = CARTESIAN_POINT ( 'NONE',  ( 0.000000000000000000, 0.04700000000000000705, -0.1249999999999999029 ) ) ;
#126 = DIRECTION ( 'NONE',  ( 0.000000000000000000, 0.000000000000000000, 1.000000000000000000 ) ) ;
#127 = LOCAL_TIME ( 12, 47, 25.00000000000000000, #190 ) ;
#128 = ORIENTED_EDGE ( 'NONE', *, *, #113, .F. ) ;
#129 = DIRECTION ( 'NONE',  ( 0.000000000000000000, 1.000000000000000000, 0.000000000000000000 ) ) ;
#130 = ORIENTED_EDGE ( 'NONE', *, *, #140, .F. ) ;
#131 = CC_DESIGN_PERSON_AND_ORGANIZATION_ASSIGNMENT ( #250, #206, ( #105 ) ) ;
#132 = DIRECTION ( 'NONE',  ( 0.000000000000000000, 1.000000000000000000, 0.000000000000000000 ) ) ;
#133 = DATE_AND_TIME ( #114, #103 ) ;
#134 = CYLINDRICAL_SURFACE ( 'NONE', #4, 0.1249999999999999029 ) ;
#135 = PRODUCT_RELATED_PRODUCT_CATEGORY ( 'detail', '', ( #240 ) ) ;
#136 = CARTESIAN_POINT ( 'NONE',  ( 0.000000000000000000, 0.04700000000000000705, -0.1249999999999999029 ) ) ;
#137 = CARTESIAN_POINT ( 'NONE',  ( 0.000000000000000000, 0.04700000000000000705, -0.3514999999999999791 ) ) ;
#138 = CC_DESIGN_PERSON_AND_ORGANIZATION_ASSIGNMENT ( #151, #228, ( #240 ) ) ;
#139 = FACE_OUTER_BOUND ( 'NONE', #46, .T. ) ;
#140 = EDGE_CURVE ( 'NONE', #141, #100, #245, .T. ) ;
#141 = VERTEX_POINT ( 'NONE', #188 ) ;
#142 = APPROVAL_STATUS ( 'not_yet_approved' ) ;
#143 = EDGE_CURVE ( 'NONE', #141, #34, #90, .T. ) ;
#144 = VERTEX_POINT ( 'NONE', #173 ) ;
#145 = ORIENTED_EDGE ( 'NONE', *, *, #171, .T. ) ;
#146 = ADVANCED_FACE ( 'NONE', ( #39 ), #244, .T. ) ;
#147 = CARTESIAN_POINT ( 'NONE',  ( 0.000000000000000000, -0.04700000000000000705, 0.000000000000000000 ) ) ;
#148 = AXIS2_PLACEMENT_3D ( 'NONE', #195, #107, #126 ) ;
#149 = ADVANCED_FACE ( 'NONE', ( #199 ), #134, .F. ) ;
#150 = DIRECTION ( 'NONE',  ( -0.000000000000000000, -1.000000000000000000, -0.000000000000000000 ) ) ;
#151 = PERSON_AND_ORGANIZATION ( #178, #227 ) ;
#152 = APPLICATION_CONTEXT ( 'configuration controlled 3d designs of mechanical parts and assemblies' ) ;
#153 = ORIENTED_EDGE ( 'NONE', *, *, #26, .F. ) ;
#154 = APPROVAL_PERSON_ORGANIZATION ( #168, #167, #48 ) ;
#155 = ORIENTED_EDGE ( 'NONE', *, *, #171, .F. ) ;
#156 = AXIS2_PLACEMENT_3D ( 'NONE', #147, #160, #80 ) ;
#157 = AXIS2_PLACEMENT_3D ( 'NONE', #203, #158, #183 ) ;
#158 = DIRECTION ( 'NONE',  ( 0.000000000000000000, 1.000000000000000000, 0.000000000000000000 ) ) ;
#159 = ORIENTED_EDGE ( 'NONE', *, *, #143, .F. ) ;
#160 = DIRECTION ( 'NONE',  ( 0.000000000000000000, 1.000000000000000000, 0.000000000000000000 ) ) ;
#161 = AXIS2_PLACEMENT_3D ( 'NONE', #249, #92, #110 ) ;
#162 = PERSON_AND_ORGANIZATION_ROLE ( 'creator' ) ;
#163 = PERSON_AND_ORGANIZATION ( #178, #227 ) ;
#164 = SECURITY_CLASSIFICATION_LEVEL ( 'unclassified' ) ;
#165 = PRODUCT_DEFINITION_SHAPE ( 'NONE', 'NONE',  #81 ) ;
#166 = FACE_BOUND ( 'NONE', #76, .T. ) ;
#167 = APPROVAL ( #187, 'UNSPECIFIED' ) ;
#168 = PERSON_AND_ORGANIZATION ( #178, #227 ) ;
#169 = DIRECTION ( 'NONE',  ( 0.000000000000000000, 1.000000000000000000, 0.000000000000000000 ) ) ;
#170 = CARTESIAN_POINT ( 'NONE',  ( 0.000000000000000000, 0.000000000000000000, 0.000000000000000000 ) ) ;
#171 = EDGE_CURVE ( 'NONE', #123, #100, #237, .T. ) ;
#172 = COORDINATED_UNIVERSAL_TIME_OFFSET ( 5, 0, .BEHIND. ) ;
#173 = CARTESIAN_POINT ( 'NONE',  ( 0.000000000000000000, 0.04700000000000000705, -0.3514999999999999791 ) ) ;
#174 = ORIENTED_EDGE ( 'NONE', *, *, #77, .F. ) ;
#175 = DIRECTION ( 'NONE',  ( 0.000000000000000000, 0.000000000000000000, 1.000000000000000000 ) ) ;
#176 = VERTEX_POINT ( 'NONE', #94 ) ;
#177 = AXIS2_PLACEMENT_3D ( 'NONE', #18, #197, #60 ) ;
#178 = PERSON ( 'UNSPECIFIED', 'UNSPECIFIED', 'UNSPECIFIED', ('UNSPECIFIED'), ('UNSPECIFIED'), ('UNSPECIFIED') ) ;
#179 = APPROVAL_DATE_TIME ( #120, #31 ) ;
#180 = CALENDAR_DATE ( 2025, 26, 8 ) ;
#181 = ORIENTED_EDGE ( 'NONE', *, *, #52, .F. ) ;
#182 = CC_DESIGN_DATE_AND_TIME_ASSIGNMENT ( #11, #10, ( #196 ) ) ;
#183 = DIRECTION ( 'NONE',  ( 0.000000000000000000, 0.000000000000000000, 1.000000000000000000 ) ) ;
#184 = DIRECTION ( 'NONE',  ( -0.000000000000000000, -1.000000000000000000, -0.000000000000000000 ) ) ;
#185 = AXIS2_PLACEMENT_3D ( 'NONE', #55, #248, #35 ) ;
#186 = EDGE_LOOP ( 'NONE', ( #128, #49, #24, #99 ) ) ;
#187 = APPROVAL_STATUS ( 'not_yet_approved' ) ;
#188 = CARTESIAN_POINT ( 'NONE',  ( 1.530808498934190276E-17, 0.04700000000000000705, 0.1249999999999999029 ) ) ;
#189 = MANIFOLD_SOLID_BREP ( 'Boss-Extrude1', #124 ) ;
#190 = COORDINATED_UNIVERSAL_TIME_OFFSET ( 5, 0, .BEHIND. ) ;
#191 = FACE_OUTER_BOUND ( 'NONE', #251, .T. ) ;
#192 = DIRECTION ( 'NONE',  ( 0.000000000000000000, 0.000000000000000000, -1.000000000000000000 ) ) ;
#193 = ORIENTED_EDGE ( 'NONE', *, *, #42, .T. ) ;
#194 = ADVANCED_FACE ( 'NONE', ( #41, #166 ), #59, .F. ) ;
#195 = CARTESIAN_POINT ( 'NONE',  ( 0.000000000000000000, 0.04700000000000000705, 0.000000000000000000 ) ) ;
#196 = SECURITY_CLASSIFICATION ( '', '', #164 ) ;
#197 = DIRECTION ( 'NONE',  ( -0.000000000000000000, -1.000000000000000000, -0.000000000000000000 ) ) ;
#198 =( NAMED_UNIT ( * ) SI_UNIT ( $, .STERADIAN. ) SOLID_ANGLE_UNIT ( ) );
#199 = FACE_OUTER_BOUND ( 'NONE', #40, .T. ) ;
#200 = CC_DESIGN_APPROVAL ( #246, ( #81 ) ) ;
#201 = AXIS2_PLACEMENT_3D ( 'NONE', #43, #132, #175 ) ;
#202 = CIRCLE ( 'NONE', #201, 0.3514999999999999791 ) ;
#203 = CARTESIAN_POINT ( 'NONE',  ( 0.000000000000000000, 0.04700000000000000705, 0.000000000000000000 ) ) ;
#204 = ORIENTED_EDGE ( 'NONE', *, *, #63, .T. ) ;
#205 = CC_DESIGN_PERSON_AND_ORGANIZATION_ASSIGNMENT ( #163, #27, ( #196 ) ) ;
#206 = PERSON_AND_ORGANIZATION_ROLE ( 'design_supplier' ) ;
#207 = UNCERTAINTY_MEASURE_WITH_UNIT (LENGTH_MEASURE( 1.000000000000000082E-05 ), #236, 'distance_accuracy_value', 'NONE');
#208 = APPLICATION_CONTEXT ( 'configuration controlled 3d designs of mechanical parts and assemblies' ) ;
#209 = DIRECTION ( 'NONE',  ( 0.000000000000000000, -0.000000000000000000, 1.000000000000000000 ) ) ;
#210 = CALENDAR_DATE ( 2025, 26, 8 ) ;
#211 = EDGE_LOOP ( 'NONE', ( #174, #159 ) ) ;
#212 = AXIS2_PLACEMENT_3D ( 'NONE', #45, #93, #209 ) ;
#213 = PERSON_AND_ORGANIZATION ( #178, #227 ) ;
#214 = ORIENTED_EDGE ( 'NONE', *, *, #140, .T. ) ;
#215 = CARTESIAN_POINT ( 'NONE',  ( 0.000000000000000000, -0.04700000000000000705, 0.000000000000000000 ) ) ;
#216 = CARTESIAN_POINT ( 'NONE',  ( 0.000000000000000000, -0.04700000000000000705, 0.000000000000000000 ) ) ;
#217 = CALENDAR_DATE ( 2025, 26, 8 ) ;
#218 = LENGTH_MEASURE_WITH_UNIT ( LENGTH_MEASURE( 0.02539999999999999897 ), #74 );
#219 = AXIS2_PLACEMENT_3D ( 'NONE', #215, #169, #231 ) ;
#220 = CALENDAR_DATE ( 2025, 26, 8 ) ;
#221 = CIRCLE ( 'NONE', #185, 0.1249999999999999029 ) ;
#222 = VERTEX_POINT ( 'NONE', #17 ) ;
#223 = CARTESIAN_POINT ( 'NONE',  ( 4.304633499002946236E-17, -0.04700000000000000705, 0.3514999999999999791 ) ) ;
#224 = COORDINATED_UNIVERSAL_TIME_OFFSET ( 5, 0, .BEHIND. ) ;
#225 = ORIENTED_EDGE ( 'NONE', *, *, #67, .T. ) ;
#226 = CARTESIAN_POINT ( 'NONE',  ( 4.304633499002946236E-17, 0.04700000000000000705, 0.3514999999999999791 ) ) ;
#227 = ORGANIZATION ( 'UNSPECIFIED', 'UNSPECIFIED', '' ) ;
#228 = PERSON_AND_ORGANIZATION_ROLE ( 'design_owner' ) ;
#229 = LINE ( 'NONE', #125, #2 ) ;
#230 = ORIENTED_EDGE ( 'NONE', *, *, #63, .F. ) ;
#231 = DIRECTION ( 'NONE',  ( 0.000000000000000000, 0.000000000000000000, 1.000000000000000000 ) ) ;
#232 = AXIS2_PLACEMENT_3D ( 'NONE', #85, #50, #192 ) ;
#233 = ADVANCED_FACE ( 'NONE', ( #139 ), #7, .F. ) ;
#234 = CARTESIAN_POINT ( 'NONE',  ( 0.000000000000000000, 0.04700000000000000705, 0.000000000000000000 ) ) ;
#235 = DIRECTION ( 'NONE',  ( 0.000000000000000000, 0.000000000000000000, 1.000000000000000000 ) ) ;
#236 =( CONVERSION_BASED_UNIT ( 'INCH', #218 ) LENGTH_UNIT ( ) NAMED_UNIT ( #13 ) );
#237 = CIRCLE ( 'NONE', #9, 0.1249999999999999029 ) ;
#238 = CC_DESIGN_APPROVAL ( #31, ( #196 ) ) ;
#239 = VECTOR ( 'NONE', #184, 39.37007874015748143 ) ;
#240 = PRODUCT ( 'GSK-32-K', 'GSK-32-K', '', ( #86 ) ) ;
#241 = VECTOR ( 'NONE', #68, 39.37007874015748143 ) ;
#242 = AXIS2_PLACEMENT_3D ( 'NONE', #216, #129, #73 ) ;
#243 = APPROVAL_DATE_TIME ( #133, #167 ) ;
#244 = CYLINDRICAL_SURFACE ( 'NONE', #177, 0.3514999999999999791 ) ;
#245 = LINE ( 'NONE', #119, #241 ) ;
#246 = APPROVAL ( #142, 'UNSPECIFIED' ) ;
#247 = AXIS2_PLACEMENT_3D ( 'NONE', #98, #6, #44 ) ;
#248 = DIRECTION ( 'NONE',  ( 0.000000000000000000, 1.000000000000000000, 0.000000000000000000 ) ) ;
#249 = CARTESIAN_POINT ( 'NONE',  ( 0.000000000000000000, 0.04700000000000000705, 0.000000000000000000 ) ) ;
#250 = PERSON_AND_ORGANIZATION ( #178, #227 ) ;
#251 = EDGE_LOOP ( 'NONE', ( #193, #28 ) ) ;
#252 = DIRECTION ( 'NONE',  ( 1.000000000000000000, 0.000000000000000000, 0.000000000000000000 ) ) ;
ENDSEC;
END-ISO-10303-21;
