ISO-10303-21;
HEADER;
FILE_DESCRIPTION (( 'STEP AP203' ),
    '1' );
FILE_NAME ('GSK-32-K.STEP',
    '2025-05-14T14:02:47',
    ( '' ),
    ( '' ),
    'SwSTEP 2.0',
    'SolidWorks 2018',
    '' );
FILE_SCHEMA (( 'CONFIG_CONTROL_DESIGN' ));
ENDSEC;

DATA;
#1 = ORIENTED_EDGE ( 'NONE', *, *, #178, .T. ) ;
#2 = ORIENTED_EDGE ( 'NONE', *, *, #205, .F. ) ;
#3 = CARTESIAN_POINT ( 'NONE',  ( 0.000000000000000000, 0.04700000000000000705, -0.3514999999999999791 ) ) ;
#4 = CARTESIAN_POINT ( 'NONE',  ( 0.000000000000000000, -0.04700000000000000705, -0.1249999999999999029 ) ) ;
#5 = PRODUCT_DEFINITION ( 'UNKNOWN', '', #239, #72 ) ;
#6 = DIRECTION ( 'NONE',  ( 0.000000000000000000, 0.000000000000000000, -1.000000000000000000 ) ) ;
#7 = EDGE_LOOP ( 'NONE', ( #176, #91, #96, #19 ) ) ;
#8 = CARTESIAN_POINT ( 'NONE',  ( 0.000000000000000000, 0.04700000000000000705, 0.000000000000000000 ) ) ;
#9 = DIRECTION ( 'NONE',  ( -0.000000000000000000, -1.000000000000000000, -0.000000000000000000 ) ) ;
#10 = CARTESIAN_POINT ( 'NONE',  ( 4.304633499002946236E-17, 0.04700000000000000705, 0.3514999999999999791 ) ) ;
#11 = UNCERTAINTY_MEASURE_WITH_UNIT (LENGTH_MEASURE( 1.000000000000000082E-05 ), #144, 'distance_accuracy_value', 'NONE');
#12 = CIRCLE ( 'NONE', #112, 0.3514999999999999791 ) ;
#13 = CC_DESIGN_PERSON_AND_ORGANIZATION_ASSIGNMENT ( #146, #47, ( #239 ) ) ;
#14 = PERSON_AND_ORGANIZATION_ROLE ( 'design_owner' ) ;
#15 = VERTEX_POINT ( 'NONE', #98 ) ;
#16 = AXIS2_PLACEMENT_3D ( 'NONE', #39, #69, #45 ) ;
#17 = SECURITY_CLASSIFICATION_LEVEL ( 'unclassified' ) ;
#18 = APPROVAL ( #192, 'UNSPECIFIED' ) ;
#19 = ORIENTED_EDGE ( 'NONE', *, *, #183, .T. ) ;
#20 = EDGE_LOOP ( 'NONE', ( #207, #51, #1, #122 ) ) ;
#21 = CARTESIAN_POINT ( 'NONE',  ( 0.000000000000000000, 0.04700000000000000705, 0.000000000000000000 ) ) ;
#22 = CARTESIAN_POINT ( 'NONE',  ( 0.000000000000000000, -0.04700000000000000705, 0.000000000000000000 ) ) ;
#23 = DIRECTION ( 'NONE',  ( 0.000000000000000000, 0.000000000000000000, -1.000000000000000000 ) ) ;
#24 = CLOSED_SHELL ( 'NONE', ( #248, #110, #193, #89, #148, #152 ) ) ;
#25 = CARTESIAN_POINT ( 'NONE',  ( 0.000000000000000000, 0.04700000000000000705, 0.000000000000000000 ) ) ;
#26 = CALENDAR_DATE ( 2025, 14, 5 ) ;
#27 = MANIFOLD_SOLID_BREP ( 'Boss-Extrude1', #24 ) ;
#28 = APPLICATION_CONTEXT ( 'configuration controlled 3d designs of mechanical parts and assemblies' ) ;
#29 = CYLINDRICAL_SURFACE ( 'NONE', #90, 0.3514999999999999791 ) ;
#30 = CYLINDRICAL_SURFACE ( 'NONE', #44, 0.1249999999999999029 ) ;
#31 = AXIS2_PLACEMENT_3D ( 'NONE', #22, #157, #75 ) ;
#32 = PERSON_AND_ORGANIZATION ( #249, #228 ) ;
#33 = AXIS2_PLACEMENT_3D ( 'NONE', #179, #180, #203 ) ;
#34 = ORIENTED_EDGE ( 'NONE', *, *, #108, .F. ) ;
#35 = ORIENTED_EDGE ( 'NONE', *, *, #205, .T. ) ;
#36 = LOCAL_TIME ( 10, 2, 47.00000000000000000, #126 ) ;
#37 = LENGTH_MEASURE_WITH_UNIT ( LENGTH_MEASURE( 0.02539999999999999897 ), #65 );
#38 = CARTESIAN_POINT ( 'NONE',  ( 0.000000000000000000, 0.04700000000000000705, -0.3514999999999999791 ) ) ;
#39 = CARTESIAN_POINT ( 'NONE',  ( 0.000000000000000000, -0.04700000000000000705, 0.000000000000000000 ) ) ;
#40 = CC_DESIGN_DATE_AND_TIME_ASSIGNMENT ( #78, #107, ( #5 ) ) ;
#41 = VERTEX_POINT ( 'NONE', #118 ) ;
#42 = EDGE_LOOP ( 'NONE', ( #54, #35, #154, #218 ) ) ;
#43 = APPLICATION_CONTEXT ( 'configuration controlled 3d designs of mechanical parts and assemblies' ) ;
#44 = AXIS2_PLACEMENT_3D ( 'NONE', #21, #57, #158 ) ;
#45 = DIRECTION ( 'NONE',  ( 0.000000000000000000, 0.000000000000000000, 1.000000000000000000 ) ) ;
#46 = CALENDAR_DATE ( 2025, 14, 5 ) ;
#47 = PERSON_AND_ORGANIZATION_ROLE ( 'creator' ) ;
#48 = CC_DESIGN_PERSON_AND_ORGANIZATION_ASSIGNMENT ( #70, #212, ( #175 ) ) ;
#49 = MECHANICAL_CONTEXT ( 'NONE', #43, 'mechanical' ) ;
#50 = ORIENTED_EDGE ( 'NONE', *, *, #234, .T. ) ;
#51 = ORIENTED_EDGE ( 'NONE', *, *, #156, .T. ) ;
#52 = DATE_AND_TIME ( #95, #55 ) ;
#53 = FACE_OUTER_BOUND ( 'NONE', #222, .T. ) ;
#54 = ORIENTED_EDGE ( 'NONE', *, *, #225, .T. ) ;
#55 = LOCAL_TIME ( 10, 2, 47.00000000000000000, #174 ) ;
#56 = EDGE_LOOP ( 'NONE', ( #241, #194 ) ) ;
#57 = DIRECTION ( 'NONE',  ( -0.000000000000000000, -1.000000000000000000, -0.000000000000000000 ) ) ;
#58 = PERSON_AND_ORGANIZATION ( #249, #228 ) ;
#59 = ADVANCED_BREP_SHAPE_REPRESENTATION ( 'GSK-32-K', ( #27, #196 ), #102 ) ;
#60 = DIRECTION ( 'NONE',  ( -0.000000000000000000, -1.000000000000000000, -0.000000000000000000 ) ) ;
#61 = CC_DESIGN_PERSON_AND_ORGANIZATION_ASSIGNMENT ( #211, #88, ( #239 ) ) ;
#62 = EDGE_LOOP ( 'NONE', ( #199, #50 ) ) ;
#63 = CARTESIAN_POINT ( 'NONE',  ( 4.304633499002946236E-17, -0.04700000000000000705, 0.3514999999999999791 ) ) ;
#64 = AXIS2_PLACEMENT_3D ( 'NONE', #25, #244, #123 ) ;
#65 =( LENGTH_UNIT ( ) NAMED_UNIT ( * ) SI_UNIT ( $, .METRE. ) );
#66 = CARTESIAN_POINT ( 'NONE',  ( 0.000000000000000000, 0.000000000000000000, 0.000000000000000000 ) ) ;
#67 = CARTESIAN_POINT ( 'NONE',  ( 4.304633499002946236E-17, 0.04700000000000000705, 0.3514999999999999791 ) ) ;
#68 = APPROVAL_PERSON_ORGANIZATION ( #117, #188, #230 ) ;
#69 = DIRECTION ( 'NONE',  ( 0.000000000000000000, 1.000000000000000000, 0.000000000000000000 ) ) ;
#70 = PERSON_AND_ORGANIZATION ( #249, #228 ) ;
#71 = AXIS2_PLACEMENT_3D ( 'NONE', #97, #237, #139 ) ;
#72 = DESIGN_CONTEXT ( 'detailed design', #28, 'design' ) ;
#73 = FACE_OUTER_BOUND ( 'NONE', #62, .T. ) ;
#74 = ORIENTED_EDGE ( 'NONE', *, *, #161, .T. ) ;
#75 = DIRECTION ( 'NONE',  ( 0.000000000000000000, -0.000000000000000000, 1.000000000000000000 ) ) ;
#76 = CC_DESIGN_APPROVAL ( #204, ( #239 ) ) ;
#77 = CARTESIAN_POINT ( 'NONE',  ( 0.000000000000000000, 0.04700000000000000705, 0.000000000000000000 ) ) ;
#78 = DATE_AND_TIME ( #46, #36 ) ;
#79 = VECTOR ( 'NONE', #60, 39.37007874015748143 ) ;
#80 = DIRECTION ( 'NONE',  ( -0.000000000000000000, -1.000000000000000000, -0.000000000000000000 ) ) ;
#81 =( NAMED_UNIT ( * ) SI_UNIT ( $, .STERADIAN. ) SOLID_ANGLE_UNIT ( ) );
#82 = CIRCLE ( 'NONE', #16, 0.1249999999999999029 ) ;
#83 = CARTESIAN_POINT ( 'NONE',  ( 1.530808498934190276E-17, 0.04700000000000000705, 0.1249999999999999029 ) ) ;
#84 = AXIS2_PLACEMENT_3D ( 'NONE', #167, #169, #206 ) ;
#85 = CARTESIAN_POINT ( 'NONE',  ( 0.000000000000000000, -0.04700000000000000705, 0.000000000000000000 ) ) ;
#86 = VECTOR ( 'NONE', #80, 39.37007874015748143 ) ;
#87 = VERTEX_POINT ( 'NONE', #200 ) ;
#88 = PERSON_AND_ORGANIZATION_ROLE ( 'design_supplier' ) ;
#89 = ADVANCED_FACE ( 'NONE', ( #111, #135 ), #236, .F. ) ;
#90 = AXIS2_PLACEMENT_3D ( 'NONE', #77, #120, #23 ) ;
#91 = ORIENTED_EDGE ( 'NONE', *, *, #217, .F. ) ;
#92 = APPROVAL_PERSON_ORGANIZATION ( #226, #204, #172 ) ;
#93 = CIRCLE ( 'NONE', #231, 0.3514999999999999791 ) ;
#94 = AXIS2_PLACEMENT_3D ( 'NONE', #116, #138, #162 ) ;
#95 = CALENDAR_DATE ( 2025, 14, 5 ) ;
#96 = ORIENTED_EDGE ( 'NONE', *, *, #134, .T. ) ;
#97 = CARTESIAN_POINT ( 'NONE',  ( 0.000000000000000000, 0.04700000000000000705, 0.000000000000000000 ) ) ;
#98 = CARTESIAN_POINT ( 'NONE',  ( 0.000000000000000000, -0.04700000000000000705, -0.3514999999999999791 ) ) ;
#99 = CARTESIAN_POINT ( 'NONE',  ( 0.000000000000000000, 0.04700000000000000705, 0.000000000000000000 ) ) ;
#100 = ORIENTED_EDGE ( 'NONE', *, *, #215, .T. ) ;
#101 = APPROVAL_DATE_TIME ( #105, #18 ) ;
#102 =( GEOMETRIC_REPRESENTATION_CONTEXT ( 3 ) GLOBAL_UNCERTAINTY_ASSIGNED_CONTEXT ( ( #11 ) ) GLOBAL_UNIT_ASSIGNED_CONTEXT ( ( #144, #208, #81 ) ) REPRESENTATION_CONTEXT ( 'NONE', 'WORKASPACE' ) );
#103 = DIRECTION ( 'NONE',  ( 0.000000000000000000, -0.000000000000000000, 1.000000000000000000 ) ) ;
#104 = DIRECTION ( 'NONE',  ( 0.000000000000000000, 0.000000000000000000, 1.000000000000000000 ) ) ;
#105 = DATE_AND_TIME ( #26, #129 ) ;
#106 = CIRCLE ( 'NONE', #64, 0.1249999999999999029 ) ;
#107 = DATE_TIME_ROLE ( 'creation_date' ) ;
#108 = EDGE_CURVE ( 'NONE', #87, #41, #185, .T. ) ;
#109 = APPROVAL_STATUS ( 'not_yet_approved' ) ;
#110 = ADVANCED_FACE ( 'NONE', ( #141 ), #29, .T. ) ;
#111 = FACE_OUTER_BOUND ( 'NONE', #56, .T. ) ;
#112 = AXIS2_PLACEMENT_3D ( 'NONE', #8, #142, #243 ) ;
#113 = DATE_AND_TIME ( #190, #202 ) ;
#114 = CC_DESIGN_APPROVAL ( #188, ( #175 ) ) ;
#115 = LINE ( 'NONE', #38, #79 ) ;
#116 = CARTESIAN_POINT ( 'NONE',  ( 0.000000000000000000, -0.04700000000000000705, 0.000000000000000000 ) ) ;
#117 = PERSON_AND_ORGANIZATION ( #249, #228 ) ;
#118 = CARTESIAN_POINT ( 'NONE',  ( 0.000000000000000000, 0.04700000000000000705, -0.1249999999999999029 ) ) ;
#119 = EDGE_CURVE ( 'NONE', #150, #197, #121, .T. ) ;
#120 = DIRECTION ( 'NONE',  ( -0.000000000000000000, -1.000000000000000000, -0.000000000000000000 ) ) ;
#121 = CIRCLE ( 'NONE', #94, 0.1249999999999999029 ) ;
#122 = ORIENTED_EDGE ( 'NONE', *, *, #134, .F. ) ;
#123 = DIRECTION ( 'NONE',  ( 0.000000000000000000, 0.000000000000000000, 1.000000000000000000 ) ) ;
#124 = CARTESIAN_POINT ( 'NONE',  ( 0.000000000000000000, 0.04700000000000000705, 0.000000000000000000 ) ) ;
#125 = DIRECTION ( 'NONE',  ( 0.000000000000000000, 1.000000000000000000, 0.000000000000000000 ) ) ;
#126 = COORDINATED_UNIVERSAL_TIME_OFFSET ( 5, 0, .BEHIND. ) ;
#127 = CYLINDRICAL_SURFACE ( 'NONE', #140, 0.1249999999999999029 ) ;
#128 = DIRECTION ( 'NONE',  ( 0.000000000000000000, 1.000000000000000000, 0.000000000000000000 ) ) ;
#129 = LOCAL_TIME ( 10, 2, 47.00000000000000000, #181 ) ;
#130 = ORIENTED_EDGE ( 'NONE', *, *, #215, .F. ) ;
#131 = DATE_TIME_ROLE ( 'classification_date' ) ;
#132 = LOCAL_TIME ( 10, 2, 47.00000000000000000, #251 ) ;
#133 = PRODUCT_RELATED_PRODUCT_CATEGORY ( 'detail', '', ( #173 ) ) ;
#134 = EDGE_CURVE ( 'NONE', #136, #15, #115, .T. ) ;
#135 = FACE_BOUND ( 'NONE', #214, .T. ) ;
#136 = VERTEX_POINT ( 'NONE', #3 ) ;
#137 = ORIENTED_EDGE ( 'NONE', *, *, #108, .T. ) ;
#138 = DIRECTION ( 'NONE',  ( 0.000000000000000000, 1.000000000000000000, 0.000000000000000000 ) ) ;
#139 = DIRECTION ( 'NONE',  ( 0.000000000000000000, 0.000000000000000000, -1.000000000000000000 ) ) ;
#140 = AXIS2_PLACEMENT_3D ( 'NONE', #99, #9, #6 ) ;
#141 = FACE_OUTER_BOUND ( 'NONE', #20, .T. ) ;
#142 = DIRECTION ( 'NONE',  ( 0.000000000000000000, 1.000000000000000000, 0.000000000000000000 ) ) ;
#143 = APPROVAL_DATE_TIME ( #113, #188 ) ;
#144 =( CONVERSION_BASED_UNIT ( 'INCH', #37 ) LENGTH_UNIT ( ) NAMED_UNIT ( #250 ) );
#145 = DIRECTION ( 'NONE',  ( -0.000000000000000000, -1.000000000000000000, -0.000000000000000000 ) ) ;
#146 = PERSON_AND_ORGANIZATION ( #249, #228 ) ;
#147 = FACE_OUTER_BOUND ( 'NONE', #7, .T. ) ;
#148 = ADVANCED_FACE ( 'NONE', ( #147 ), #221, .T. ) ;
#149 = PERSON_AND_ORGANIZATION ( #249, #228 ) ;
#150 = VERTEX_POINT ( 'NONE', #4 ) ;
#151 = CC_DESIGN_SECURITY_CLASSIFICATION ( #175, ( #239 ) ) ;
#152 = ADVANCED_FACE ( 'NONE', ( #53 ), #30, .F. ) ;
#153 = LINE ( 'NONE', #210, #86 ) ;
#154 = ORIENTED_EDGE ( 'NONE', *, *, #119, .F. ) ;
#155 = ORIENTED_EDGE ( 'NONE', *, *, #119, .T. ) ;
#156 = EDGE_CURVE ( 'NONE', #165, #242, #216, .T. ) ;
#157 = DIRECTION ( 'NONE',  ( 0.000000000000000000, 1.000000000000000000, 0.000000000000000000 ) ) ;
#158 = DIRECTION ( 'NONE',  ( 0.000000000000000000, 0.000000000000000000, -1.000000000000000000 ) ) ;
#159 = DATE_AND_TIME ( #232, #132 ) ;
#160 = CIRCLE ( 'NONE', #84, 0.3514999999999999791 ) ;
#161 = EDGE_CURVE ( 'NONE', #41, #150, #153, .T. ) ;
#162 = DIRECTION ( 'NONE',  ( 0.000000000000000000, 0.000000000000000000, 1.000000000000000000 ) ) ;
#163 = PLANE ( 'NONE',  #240 ) ;
#164 = CIRCLE ( 'NONE', #245, 0.3514999999999999791 ) ;
#165 = VERTEX_POINT ( 'NONE', #67 ) ;
#166 = CARTESIAN_POINT ( 'NONE',  ( 0.000000000000000000, 0.04700000000000000705, 0.000000000000000000 ) ) ;
#167 = CARTESIAN_POINT ( 'NONE',  ( 0.000000000000000000, -0.04700000000000000705, 0.000000000000000000 ) ) ;
#168 = COORDINATED_UNIVERSAL_TIME_OFFSET ( 5, 0, .BEHIND. ) ;
#169 = DIRECTION ( 'NONE',  ( 0.000000000000000000, 1.000000000000000000, 0.000000000000000000 ) ) ;
#170 = APPROVAL_ROLE ( '' ) ;
#171 = VECTOR ( 'NONE', #182, 39.37007874015748143 ) ;
#172 = APPROVAL_ROLE ( '' ) ;
#173 = PRODUCT ( 'GSK-32-K', 'GSK-32-K', '', ( #49 ) ) ;
#174 = COORDINATED_UNIVERSAL_TIME_OFFSET ( 5, 0, .BEHIND. ) ;
#175 = SECURITY_CLASSIFICATION ( '', '', #17 ) ;
#176 = ORIENTED_EDGE ( 'NONE', *, *, #156, .F. ) ;
#177 = CC_DESIGN_DATE_AND_TIME_ASSIGNMENT ( #159, #131, ( #175 ) ) ;
#178 = EDGE_CURVE ( 'NONE', #242, #15, #160, .T. ) ;
#179 = CARTESIAN_POINT ( 'NONE',  ( 0.000000000000000000, 0.04700000000000000705, 0.000000000000000000 ) ) ;
#180 = DIRECTION ( 'NONE',  ( 0.000000000000000000, 1.000000000000000000, 0.000000000000000000 ) ) ;
#181 = COORDINATED_UNIVERSAL_TIME_OFFSET ( 5, 0, .BEHIND. ) ;
#182 = DIRECTION ( 'NONE',  ( -0.000000000000000000, -1.000000000000000000, -0.000000000000000000 ) ) ;
#183 = EDGE_CURVE ( 'NONE', #15, #242, #164, .T. ) ;
#184 = APPLICATION_PROTOCOL_DEFINITION ( 'international standard', 'config_control_design', 1994, #43 ) ;
#185 = CIRCLE ( 'NONE', #33, 0.1249999999999999029 ) ;
#186 = DIRECTION ( 'NONE',  ( 0.000000000000000000, 1.000000000000000000, 0.000000000000000000 ) ) ;
#187 = CARTESIAN_POINT ( 'NONE',  ( 1.530808498934190276E-17, -0.04700000000000000705, 0.1249999999999999029 ) ) ;
#188 = APPROVAL ( #109, 'UNSPECIFIED' ) ;
#189 = PERSON_AND_ORGANIZATION_ROLE ( 'creator' ) ;
#190 = CALENDAR_DATE ( 2025, 14, 5 ) ;
#191 = FACE_BOUND ( 'NONE', #229, .T. ) ;
#192 = APPROVAL_STATUS ( 'not_yet_approved' ) ;
#193 = ADVANCED_FACE ( 'NONE', ( #73, #191 ), #163, .T. ) ;
#194 = ORIENTED_EDGE ( 'NONE', *, *, #178, .F. ) ;
#195 = ORIENTED_EDGE ( 'NONE', *, *, #225, .F. ) ;
#196 = AXIS2_PLACEMENT_3D ( 'NONE', #66, #209, #246 ) ;
#197 = VERTEX_POINT ( 'NONE', #187 ) ;
#198 = APPROVAL_DATE_TIME ( #52, #204 ) ;
#199 = ORIENTED_EDGE ( 'NONE', *, *, #217, .T. ) ;
#200 = CARTESIAN_POINT ( 'NONE',  ( 1.530808498934190276E-17, 0.04700000000000000705, 0.1249999999999999029 ) ) ;
#201 = CC_DESIGN_APPROVAL ( #18, ( #5 ) ) ;
#202 = LOCAL_TIME ( 10, 2, 47.00000000000000000, #168 ) ;
#203 = DIRECTION ( 'NONE',  ( 0.000000000000000000, 0.000000000000000000, 1.000000000000000000 ) ) ;
#204 = APPROVAL ( #213, 'UNSPECIFIED' ) ;
#205 = EDGE_CURVE ( 'NONE', #87, #197, #235, .T. ) ;
#206 = DIRECTION ( 'NONE',  ( 0.000000000000000000, 0.000000000000000000, 1.000000000000000000 ) ) ;
#207 = ORIENTED_EDGE ( 'NONE', *, *, #234, .F. ) ;
#208 =( NAMED_UNIT ( * ) PLANE_ANGLE_UNIT ( ) SI_UNIT ( $, .RADIAN. ) );
#209 = DIRECTION ( 'NONE',  ( 0.000000000000000000, 0.000000000000000000, 1.000000000000000000 ) ) ;
#210 = CARTESIAN_POINT ( 'NONE',  ( 0.000000000000000000, 0.04700000000000000705, -0.1249999999999999029 ) ) ;
#211 = PERSON_AND_ORGANIZATION ( #249, #228 ) ;
#212 = PERSON_AND_ORGANIZATION_ROLE ( 'classification_officer' ) ;
#213 = APPROVAL_STATUS ( 'not_yet_approved' ) ;
#214 = EDGE_LOOP ( 'NONE', ( #155, #100 ) ) ;
#215 = EDGE_CURVE ( 'NONE', #197, #150, #82, .T. ) ;
#216 = LINE ( 'NONE', #10, #171 ) ;
#217 = EDGE_CURVE ( 'NONE', #136, #165, #12, .T. ) ;
#218 = ORIENTED_EDGE ( 'NONE', *, *, #161, .F. ) ;
#219 = SHAPE_DEFINITION_REPRESENTATION ( #247, #59 ) ;
#220 = CC_DESIGN_PERSON_AND_ORGANIZATION_ASSIGNMENT ( #58, #14, ( #173 ) ) ;
#221 = CYLINDRICAL_SURFACE ( 'NONE', #71, 0.3514999999999999791 ) ;
#222 = EDGE_LOOP ( 'NONE', ( #2, #137, #74, #130 ) ) ;
#223 = DIRECTION ( 'NONE',  ( 0.000000000000000000, 0.000000000000000000, 1.000000000000000000 ) ) ;
#224 = CC_DESIGN_PERSON_AND_ORGANIZATION_ASSIGNMENT ( #149, #189, ( #5 ) ) ;
#225 = EDGE_CURVE ( 'NONE', #41, #87, #106, .T. ) ;
#226 = PERSON_AND_ORGANIZATION ( #249, #228 ) ;
#227 = APPLICATION_PROTOCOL_DEFINITION ( 'international standard', 'config_control_design', 1994, #28 ) ;
#228 = ORGANIZATION ( 'UNSPECIFIED', 'UNSPECIFIED', '' ) ;
#229 = EDGE_LOOP ( 'NONE', ( #195, #34 ) ) ;
#230 = APPROVAL_ROLE ( '' ) ;
#231 = AXIS2_PLACEMENT_3D ( 'NONE', #124, #125, #223 ) ;
#232 = CALENDAR_DATE ( 2025, 14, 5 ) ;
#233 = VECTOR ( 'NONE', #145, 39.37007874015748143 ) ;
#234 = EDGE_CURVE ( 'NONE', #165, #136, #93, .T. ) ;
#235 = LINE ( 'NONE', #83, #233 ) ;
#236 = PLANE ( 'NONE',  #31 ) ;
#237 = DIRECTION ( 'NONE',  ( -0.000000000000000000, -1.000000000000000000, -0.000000000000000000 ) ) ;
#238 = APPROVAL_PERSON_ORGANIZATION ( #32, #18, #170 ) ;
#239 = PRODUCT_DEFINITION_FORMATION_WITH_SPECIFIED_SOURCE ( 'ANY', '', #173, .NOT_KNOWN. ) ;
#240 = AXIS2_PLACEMENT_3D ( 'NONE', #166, #128, #103 ) ;
#241 = ORIENTED_EDGE ( 'NONE', *, *, #183, .F. ) ;
#242 = VERTEX_POINT ( 'NONE', #63 ) ;
#243 = DIRECTION ( 'NONE',  ( 0.000000000000000000, 0.000000000000000000, 1.000000000000000000 ) ) ;
#244 = DIRECTION ( 'NONE',  ( 0.000000000000000000, 1.000000000000000000, 0.000000000000000000 ) ) ;
#245 = AXIS2_PLACEMENT_3D ( 'NONE', #85, #186, #104 ) ;
#246 = DIRECTION ( 'NONE',  ( 1.000000000000000000, 0.000000000000000000, 0.000000000000000000 ) ) ;
#247 = PRODUCT_DEFINITION_SHAPE ( 'NONE', 'NONE',  #5 ) ;
#248 = ADVANCED_FACE ( 'NONE', ( #252 ), #127, .F. ) ;
#249 = PERSON ( 'UNSPECIFIED', 'UNSPECIFIED', 'UNSPECIFIED', ('UNSPECIFIED'), ('UNSPECIFIED'), ('UNSPECIFIED') ) ;
#250 = DIMENSIONAL_EXPONENTS ( 1.000000000000000000, 0.000000000000000000, 0.000000000000000000, 0.000000000000000000, 0.000000000000000000, 0.000000000000000000, 0.000000000000000000 ) ;
#251 = COORDINATED_UNIVERSAL_TIME_OFFSET ( 5, 0, .BEHIND. ) ;
#252 = FACE_OUTER_BOUND ( 'NONE', #42, .T. ) ;
ENDSEC;
END-ISO-10303-21;
