ISO-10303-21;
HEADER;
FILE_DESCRIPTION (( 'STEP AP203' ),
    '1' );
FILE_NAME ('GSK-32-T.STEP',
    '2025-08-26T16:56:43',
    ( '' ),
    ( '' ),
    'SwSTEP 2.0',
    'SolidWorks 2018',
    '' );
FILE_SCHEMA (( 'CONFIG_CONTROL_DESIGN' ));
ENDSEC;

DATA;
#1 = ORIENTED_EDGE ( 'NONE', *, *, #44, .T. ) ;
#2 = DIRECTION ( 'NONE',  ( 1.000000000000000000, 0.000000000000000000, 0.000000000000000000 ) ) ;
#3 = COORDINATED_UNIVERSAL_TIME_OFFSET ( 5, 0, .BEHIND. ) ;
#4 = ORIENTED_EDGE ( 'NONE', *, *, #200, .T. ) ;
#5 = CYLINDRICAL_SURFACE ( 'NONE', #124, 0.1250000000000000555 ) ;
#6 = DIRECTION ( 'NONE',  ( 0.000000000000000000, 0.000000000000000000, 1.000000000000000000 ) ) ;
#7 = PERSON_AND_ORGANIZATION ( #157, #188 ) ;
#8 = CC_DESIGN_APPROVAL ( #244, ( #225 ) ) ;
#9 = DIRECTION ( 'NONE',  ( 0.000000000000000000, 1.000000000000000000, 0.000000000000000000 ) ) ;
#10 = AXIS2_PLACEMENT_3D ( 'NONE', #156, #115, #97 ) ;
#11 = COORDINATED_UNIVERSAL_TIME_OFFSET ( 5, 0, .BEHIND. ) ;
#12 = EDGE_LOOP ( 'NONE', ( #49, #4, #53, #227 ) ) ;
#13 = CC_DESIGN_PERSON_AND_ORGANIZATION_ASSIGNMENT ( #142, #141, ( #155 ) ) ;
#14 = CARTESIAN_POINT ( 'NONE',  ( 0.000000000000000000, 0.000000000000000000, 0.000000000000000000 ) ) ;
#15 = LINE ( 'NONE', #52, #116 ) ;
#16 = DIRECTION ( 'NONE',  ( 0.000000000000000000, 1.000000000000000000, 0.000000000000000000 ) ) ;
#17 = CARTESIAN_POINT ( 'NONE',  ( 4.304633499002945620E-17, 0.000000000000000000, 0.3514999999999999236 ) ) ;
#18 = CIRCLE ( 'NONE', #10, 0.1250000000000000555 ) ;
#19 = ADVANCED_FACE ( 'NONE', ( #209 ), #131, .T. ) ;
#20 = APPLICATION_PROTOCOL_DEFINITION ( 'international standard', 'config_control_design', 1994, #42 ) ;
#21 = EDGE_CURVE ( 'NONE', #121, #57, #130, .T. ) ;
#22 = PERSON_AND_ORGANIZATION ( #157, #188 ) ;
#23 = CC_DESIGN_DATE_AND_TIME_ASSIGNMENT ( #184, #65, ( #70 ) ) ;
#24 = ORIENTED_EDGE ( 'NONE', *, *, #44, .F. ) ;
#25 = EDGE_CURVE ( 'NONE', #110, #33, #62, .T. ) ;
#26 = CARTESIAN_POINT ( 'NONE',  ( 0.000000000000000000, 0.09400000000000001410, 0.000000000000000000 ) ) ;
#27 = LENGTH_MEASURE_WITH_UNIT ( LENGTH_MEASURE( 0.02539999999999999897 ), #196 );
#28 = ORIENTED_EDGE ( 'NONE', *, *, #222, .F. ) ;
#29 = EDGE_CURVE ( 'NONE', #57, #121, #76, .T. ) ;
#30 = APPROVAL_DATE_TIME ( #180, #138 ) ;
#31 = EDGE_LOOP ( 'NONE', ( #150, #69 ) ) ;
#32 = CALENDAR_DATE ( 2025, 26, 8 ) ;
#33 = VERTEX_POINT ( 'NONE', #203 ) ;
#34 = ADVANCED_FACE ( 'NONE', ( #224 ), #5, .F. ) ;
#35 = DIRECTION ( 'NONE',  ( 0.000000000000000000, 0.000000000000000000, -1.000000000000000000 ) ) ;
#36 = CARTESIAN_POINT ( 'NONE',  ( 0.000000000000000000, 0.09400000000000001410, -0.1250000000000000555 ) ) ;
#37 = FACE_OUTER_BOUND ( 'NONE', #90, .T. ) ;
#38 = AXIS2_PLACEMENT_3D ( 'NONE', #100, #118, #35 ) ;
#39 = CARTESIAN_POINT ( 'NONE',  ( 0.000000000000000000, 0.09400000000000001410, -0.1250000000000000555 ) ) ;
#40 = MECHANICAL_CONTEXT ( 'NONE', #102, 'mechanical' ) ;
#41 = LOCAL_TIME ( 12, 56, 43.00000000000000000, #109 ) ;
#42 = APPLICATION_CONTEXT ( 'configuration controlled 3d designs of mechanical parts and assemblies' ) ;
#43 = APPROVAL_STATUS ( 'not_yet_approved' ) ;
#44 = EDGE_CURVE ( 'NONE', #121, #33, #15, .T. ) ;
#45 = LOCAL_TIME ( 12, 56, 43.00000000000000000, #3 ) ;
#46 = CYLINDRICAL_SURFACE ( 'NONE', #149, 0.3514999999999999236 ) ;
#47 = ORIENTED_EDGE ( 'NONE', *, *, #175, .T. ) ;
#48 = DIRECTION ( 'NONE',  ( -0.000000000000000000, -1.000000000000000000, -0.000000000000000000 ) ) ;
#49 = ORIENTED_EDGE ( 'NONE', *, *, #189, .F. ) ;
#50 = AXIS2_PLACEMENT_3D ( 'NONE', #128, #48, #145 ) ;
#51 = CIRCLE ( 'NONE', #136, 0.1250000000000000555 ) ;
#52 = CARTESIAN_POINT ( 'NONE',  ( 0.000000000000000000, 0.09400000000000001410, -0.3514999999999999236 ) ) ;
#53 = ORIENTED_EDGE ( 'NONE', *, *, #222, .T. ) ;
#54 = PLANE ( 'NONE',  #103 ) ;
#55 = DIRECTION ( 'NONE',  ( 0.000000000000000000, 1.000000000000000000, 0.000000000000000000 ) ) ;
#56 = DIRECTION ( 'NONE',  ( 0.000000000000000000, 0.000000000000000000, 1.000000000000000000 ) ) ;
#57 = VERTEX_POINT ( 'NONE', #210 ) ;
#58 = AXIS2_PLACEMENT_3D ( 'NONE', #14, #16, #120 ) ;
#59 = DIRECTION ( 'NONE',  ( -0.000000000000000000, -1.000000000000000000, -0.000000000000000000 ) ) ;
#60 = CARTESIAN_POINT ( 'NONE',  ( 0.000000000000000000, 0.09400000000000001410, 0.000000000000000000 ) ) ;
#61 = APPROVAL_PERSON_ORGANIZATION ( #7, #244, #122 ) ;
#62 = CIRCLE ( 'NONE', #64, 0.3514999999999999236 ) ;
#63 = SECURITY_CLASSIFICATION_LEVEL ( 'unclassified' ) ;
#64 = AXIS2_PLACEMENT_3D ( 'NONE', #107, #186, #71 ) ;
#65 = DATE_TIME_ROLE ( 'creation_date' ) ;
#66 = PERSON_AND_ORGANIZATION ( #157, #188 ) ;
#67 = CIRCLE ( 'NONE', #58, 0.1250000000000000555 ) ;
#68 = PERSON_AND_ORGANIZATION_ROLE ( 'classification_officer' ) ;
#69 = ORIENTED_EDGE ( 'NONE', *, *, #200, .F. ) ;
#70 = PRODUCT_DEFINITION ( 'UNKNOWN', '', #151, #112 ) ;
#71 = DIRECTION ( 'NONE',  ( 0.000000000000000000, 0.000000000000000000, 1.000000000000000000 ) ) ;
#72 = LOCAL_TIME ( 12, 56, 43.00000000000000000, #223 ) ;
#73 = CYLINDRICAL_SURFACE ( 'NONE', #38, 0.1250000000000000555 ) ;
#74 = FACE_OUTER_BOUND ( 'NONE', #12, .T. ) ;
#75 = APPROVAL_PERSON_ORGANIZATION ( #245, #208, #123 ) ;
#76 = CIRCLE ( 'NONE', #91, 0.3514999999999999236 ) ;
#77 = DIRECTION ( 'NONE',  ( 0.000000000000000000, 0.000000000000000000, 1.000000000000000000 ) ) ;
#78 = DIRECTION ( 'NONE',  ( 0.000000000000000000, 1.000000000000000000, 0.000000000000000000 ) ) ;
#79 = CARTESIAN_POINT ( 'NONE',  ( 1.530808498934192125E-17, 0.09400000000000001410, 0.1250000000000000555 ) ) ;
#80 = DIRECTION ( 'NONE',  ( 0.000000000000000000, -0.000000000000000000, 1.000000000000000000 ) ) ;
#81 = ORIENTED_EDGE ( 'NONE', *, *, #21, .F. ) ;
#82 = EDGE_CURVE ( 'NONE', #163, #241, #18, .T. ) ;
#83 = CARTESIAN_POINT ( 'NONE',  ( 0.000000000000000000, 0.000000000000000000, 0.000000000000000000 ) ) ;
#84 = APPROVAL_DATE_TIME ( #165, #244 ) ;
#85 =( NAMED_UNIT ( * ) SI_UNIT ( $, .STERADIAN. ) SOLID_ANGLE_UNIT ( ) );
#86 = FACE_BOUND ( 'NONE', #31, .T. ) ;
#87 = EDGE_LOOP ( 'NONE', ( #181, #233, #169, #24 ) ) ;
#88 = CARTESIAN_POINT ( 'NONE',  ( 0.000000000000000000, 0.09400000000000001410, 0.000000000000000000 ) ) ;
#89 = CALENDAR_DATE ( 2025, 26, 8 ) ;
#90 = EDGE_LOOP ( 'NONE', ( #246, #219 ) ) ;
#91 = AXIS2_PLACEMENT_3D ( 'NONE', #170, #9, #207 ) ;
#92 = PRODUCT_DEFINITION_SHAPE ( 'NONE', 'NONE',  #70 ) ;
#93 = CC_DESIGN_PERSON_AND_ORGANIZATION_ASSIGNMENT ( #187, #159, ( #151 ) ) ;
#94 = LOCAL_TIME ( 12, 56, 43.00000000000000000, #101 ) ;
#95 = VERTEX_POINT ( 'NONE', #195 ) ;
#96 = ADVANCED_FACE ( 'NONE', ( #206, #86 ), #54, .T. ) ;
#97 = DIRECTION ( 'NONE',  ( 0.000000000000000000, 0.000000000000000000, 1.000000000000000000 ) ) ;
#98 = CALENDAR_DATE ( 2025, 26, 8 ) ;
#99 = LINE ( 'NONE', #230, #161 ) ;
#100 = CARTESIAN_POINT ( 'NONE',  ( 0.000000000000000000, 0.09400000000000001410, 0.000000000000000000 ) ) ;
#101 = COORDINATED_UNIVERSAL_TIME_OFFSET ( 5, 0, .BEHIND. ) ;
#102 = APPLICATION_CONTEXT ( 'configuration controlled 3d designs of mechanical parts and assemblies' ) ;
#103 = AXIS2_PLACEMENT_3D ( 'NONE', #60, #232, #80 ) ;
#104 = FACE_OUTER_BOUND ( 'NONE', #87, .T. ) ;
#105 = CC_DESIGN_SECURITY_CLASSIFICATION ( #225, ( #151 ) ) ;
#106 = VERTEX_POINT ( 'NONE', #229 ) ;
#107 = CARTESIAN_POINT ( 'NONE',  ( 0.000000000000000000, 0.000000000000000000, 0.000000000000000000 ) ) ;
#108 = CC_DESIGN_APPROVAL ( #138, ( #70 ) ) ;
#109 = COORDINATED_UNIVERSAL_TIME_OFFSET ( 5, 0, .BEHIND. ) ;
#110 = VERTEX_POINT ( 'NONE', #17 ) ;
#111 = ORIENTED_EDGE ( 'NONE', *, *, #21, .T. ) ;
#112 = DESIGN_CONTEXT ( 'detailed design', #42, 'design' ) ;
#113 = AXIS2_PLACEMENT_3D ( 'NONE', #211, #78, #218 ) ;
#114 = DATE_AND_TIME ( #212, #72 ) ;
#115 = DIRECTION ( 'NONE',  ( 0.000000000000000000, 1.000000000000000000, 0.000000000000000000 ) ) ;
#116 = VECTOR ( 'NONE', #228, 39.37007874015748143 ) ;
#117 = ADVANCED_BREP_SHAPE_REPRESENTATION ( 'GSK-32-T', ( #205, #252 ), #216 ) ;
#118 = DIRECTION ( 'NONE',  ( -0.000000000000000000, -1.000000000000000000, -0.000000000000000000 ) ) ;
#119 = DIRECTION ( 'NONE',  ( 0.000000000000000000, 0.000000000000000000, -1.000000000000000000 ) ) ;
#120 = DIRECTION ( 'NONE',  ( 0.000000000000000000, 0.000000000000000000, 1.000000000000000000 ) ) ;
#121 = VERTEX_POINT ( 'NONE', #137 ) ;
#122 = APPROVAL_ROLE ( '' ) ;
#123 = APPROVAL_ROLE ( '' ) ;
#124 = AXIS2_PLACEMENT_3D ( 'NONE', #26, #164, #168 ) ;
#125 = CIRCLE ( 'NONE', #113, 0.3514999999999999236 ) ;
#126 = ORIENTED_EDGE ( 'NONE', *, *, #189, .T. ) ;
#127 = PRODUCT_RELATED_PRODUCT_CATEGORY ( 'detail', '', ( #155 ) ) ;
#128 = CARTESIAN_POINT ( 'NONE',  ( 0.000000000000000000, 0.09400000000000001410, 0.000000000000000000 ) ) ;
#129 = PERSON_AND_ORGANIZATION ( #157, #188 ) ;
#130 = CIRCLE ( 'NONE', #204, 0.3514999999999999236 ) ;
#131 = CYLINDRICAL_SURFACE ( 'NONE', #50, 0.3514999999999999236 ) ;
#132 = EDGE_CURVE ( 'NONE', #57, #110, #99, .T. ) ;
#133 = CARTESIAN_POINT ( 'NONE',  ( 0.000000000000000000, 0.000000000000000000, 0.000000000000000000 ) ) ;
#134 = CC_DESIGN_PERSON_AND_ORGANIZATION_ASSIGNMENT ( #129, #182, ( #70 ) ) ;
#135 = CARTESIAN_POINT ( 'NONE',  ( 0.000000000000000000, 0.09400000000000001410, 0.000000000000000000 ) ) ;
#136 = AXIS2_PLACEMENT_3D ( 'NONE', #214, #55, #77 ) ;
#137 = CARTESIAN_POINT ( 'NONE',  ( 0.000000000000000000, 0.09400000000000001410, -0.3514999999999999236 ) ) ;
#138 = APPROVAL ( #43, 'UNSPECIFIED' ) ;
#139 = SHAPE_DEFINITION_REPRESENTATION ( #92, #117 ) ;
#140 = AXIS2_PLACEMENT_3D ( 'NONE', #135, #152, #56 ) ;
#141 = PERSON_AND_ORGANIZATION_ROLE ( 'design_owner' ) ;
#142 = PERSON_AND_ORGANIZATION ( #157, #188 ) ;
#143 = VECTOR ( 'NONE', #174, 39.37007874015748143 ) ;
#144 = APPROVAL_PERSON_ORGANIZATION ( #66, #138, #183 ) ;
#145 = DIRECTION ( 'NONE',  ( 0.000000000000000000, 0.000000000000000000, -1.000000000000000000 ) ) ;
#146 = CC_DESIGN_PERSON_AND_ORGANIZATION_ASSIGNMENT ( #153, #177, ( #151 ) ) ;
#147 = EDGE_LOOP ( 'NONE', ( #185, #81, #1, #201 ) ) ;
#148 = EDGE_LOOP ( 'NONE', ( #158, #126, #176, #28 ) ) ;
#149 = AXIS2_PLACEMENT_3D ( 'NONE', #249, #251, #119 ) ;
#150 = ORIENTED_EDGE ( 'NONE', *, *, #82, .F. ) ;
#151 = PRODUCT_DEFINITION_FORMATION_WITH_SPECIFIED_SOURCE ( 'ANY', '', #155, .NOT_KNOWN. ) ;
#152 = DIRECTION ( 'NONE',  ( 0.000000000000000000, 1.000000000000000000, 0.000000000000000000 ) ) ;
#153 = PERSON_AND_ORGANIZATION ( #157, #188 ) ;
#154 = PLANE ( 'NONE',  #226 ) ;
#155 = PRODUCT ( 'GSK-32-T', 'GSK-32-T', '', ( #40 ) ) ;
#156 = CARTESIAN_POINT ( 'NONE',  ( 0.000000000000000000, 0.09400000000000001410, 0.000000000000000000 ) ) ;
#157 = PERSON ( 'UNSPECIFIED', 'UNSPECIFIED', 'UNSPECIFIED', ('UNSPECIFIED'), ('UNSPECIFIED'), ('UNSPECIFIED') ) ;
#158 = ORIENTED_EDGE ( 'NONE', *, *, #82, .T. ) ;
#159 = PERSON_AND_ORGANIZATION_ROLE ( 'design_supplier' ) ;
#160 = DIRECTION ( 'NONE',  ( 0.000000000000000000, 0.000000000000000000, 1.000000000000000000 ) ) ;
#161 = VECTOR ( 'NONE', #234, 39.37007874015748143 ) ;
#162 = APPROVAL_STATUS ( 'not_yet_approved' ) ;
#163 = VERTEX_POINT ( 'NONE', #39 ) ;
#164 = DIRECTION ( 'NONE',  ( -0.000000000000000000, -1.000000000000000000, -0.000000000000000000 ) ) ;
#165 = DATE_AND_TIME ( #89, #217 ) ;
#166 = CALENDAR_DATE ( 2025, 26, 8 ) ;
#167 = EDGE_CURVE ( 'NONE', #95, #106, #67, .T. ) ;
#168 = DIRECTION ( 'NONE',  ( 0.000000000000000000, 0.000000000000000000, -1.000000000000000000 ) ) ;
#169 = ORIENTED_EDGE ( 'NONE', *, *, #25, .T. ) ;
#170 = CARTESIAN_POINT ( 'NONE',  ( 0.000000000000000000, 0.09400000000000001410, 0.000000000000000000 ) ) ;
#171 = ADVANCED_FACE ( 'NONE', ( #74 ), #73, .F. ) ;
#172 = EDGE_CURVE ( 'NONE', #33, #110, #125, .T. ) ;
#173 = ADVANCED_FACE ( 'NONE', ( #104 ), #46, .T. ) ;
#174 = DIRECTION ( 'NONE',  ( -0.000000000000000000, -1.000000000000000000, -0.000000000000000000 ) ) ;
#175 = EDGE_CURVE ( 'NONE', #106, #95, #51, .T. ) ;
#176 = ORIENTED_EDGE ( 'NONE', *, *, #175, .F. ) ;
#177 = PERSON_AND_ORGANIZATION_ROLE ( 'creator' ) ;
#178 = DATE_TIME_ROLE ( 'classification_date' ) ;
#179 = APPLICATION_PROTOCOL_DEFINITION ( 'international standard', 'config_control_design', 1994, #102 ) ;
#180 = DATE_AND_TIME ( #98, #45 ) ;
#181 = ORIENTED_EDGE ( 'NONE', *, *, #29, .F. ) ;
#182 = PERSON_AND_ORGANIZATION_ROLE ( 'creator' ) ;
#183 = APPROVAL_ROLE ( '' ) ;
#184 = DATE_AND_TIME ( #32, #41 ) ;
#185 = ORIENTED_EDGE ( 'NONE', *, *, #132, .F. ) ;
#186 = DIRECTION ( 'NONE',  ( 0.000000000000000000, 1.000000000000000000, 0.000000000000000000 ) ) ;
#187 = PERSON_AND_ORGANIZATION ( #157, #188 ) ;
#188 = ORGANIZATION ( 'UNSPECIFIED', 'UNSPECIFIED', '' ) ;
#189 = EDGE_CURVE ( 'NONE', #241, #95, #198, .T. ) ;
#190 = DATE_AND_TIME ( #166, #94 ) ;
#191 = CC_DESIGN_PERSON_AND_ORGANIZATION_ASSIGNMENT ( #22, #68, ( #225 ) ) ;
#192 = DIRECTION ( 'NONE',  ( 0.000000000000000000, 1.000000000000000000, 0.000000000000000000 ) ) ;
#193 = CIRCLE ( 'NONE', #140, 0.1250000000000000555 ) ;
#194 = CLOSED_SHELL ( 'NONE', ( #34, #173, #96, #248, #19, #171 ) ) ;
#195 = CARTESIAN_POINT ( 'NONE',  ( 1.530808498934192125E-17, 0.000000000000000000, 0.1250000000000000555 ) ) ;
#196 =( LENGTH_UNIT ( ) NAMED_UNIT ( * ) SI_UNIT ( $, .METRE. ) );
#197 =( CONVERSION_BASED_UNIT ( 'INCH', #27 ) LENGTH_UNIT ( ) NAMED_UNIT ( #247 ) );
#198 = LINE ( 'NONE', #235, #243 ) ;
#199 = ORIENTED_EDGE ( 'NONE', *, *, #167, .T. ) ;
#200 = EDGE_CURVE ( 'NONE', #241, #163, #193, .T. ) ;
#201 = ORIENTED_EDGE ( 'NONE', *, *, #172, .T. ) ;
#202 = EDGE_LOOP ( 'NONE', ( #111, #238 ) ) ;
#203 = CARTESIAN_POINT ( 'NONE',  ( 0.000000000000000000, 0.000000000000000000, -0.3514999999999999236 ) ) ;
#204 = AXIS2_PLACEMENT_3D ( 'NONE', #88, #221, #6 ) ;
#205 = MANIFOLD_SOLID_BREP ( 'Boss-Extrude1', #194 ) ;
#206 = FACE_OUTER_BOUND ( 'NONE', #202, .T. ) ;
#207 = DIRECTION ( 'NONE',  ( 0.000000000000000000, 0.000000000000000000, 1.000000000000000000 ) ) ;
#208 = APPROVAL ( #162, 'UNSPECIFIED' ) ;
#209 = FACE_OUTER_BOUND ( 'NONE', #147, .T. ) ;
#210 = CARTESIAN_POINT ( 'NONE',  ( 4.304633499002945620E-17, 0.09400000000000001410, 0.3514999999999999236 ) ) ;
#211 = CARTESIAN_POINT ( 'NONE',  ( 0.000000000000000000, 0.000000000000000000, 0.000000000000000000 ) ) ;
#212 = CALENDAR_DATE ( 2025, 26, 8 ) ;
#213 = CC_DESIGN_APPROVAL ( #208, ( #151 ) ) ;
#214 = CARTESIAN_POINT ( 'NONE',  ( 0.000000000000000000, 0.000000000000000000, 0.000000000000000000 ) ) ;
#215 = DIRECTION ( 'NONE',  ( 0.000000000000000000, -0.000000000000000000, 1.000000000000000000 ) ) ;
#216 =( GEOMETRIC_REPRESENTATION_CONTEXT ( 3 ) GLOBAL_UNCERTAINTY_ASSIGNED_CONTEXT ( ( #231 ) ) GLOBAL_UNIT_ASSIGNED_CONTEXT ( ( #197, #220, #85 ) ) REPRESENTATION_CONTEXT ( 'NONE', 'WORKASPACE' ) );
#217 = LOCAL_TIME ( 12, 56, 43.00000000000000000, #11 ) ;
#218 = DIRECTION ( 'NONE',  ( 0.000000000000000000, 0.000000000000000000, 1.000000000000000000 ) ) ;
#219 = ORIENTED_EDGE ( 'NONE', *, *, #25, .F. ) ;
#220 =( NAMED_UNIT ( * ) PLANE_ANGLE_UNIT ( ) SI_UNIT ( $, .RADIAN. ) );
#221 = DIRECTION ( 'NONE',  ( 0.000000000000000000, 1.000000000000000000, 0.000000000000000000 ) ) ;
#222 = EDGE_CURVE ( 'NONE', #163, #106, #250, .T. ) ;
#223 = COORDINATED_UNIVERSAL_TIME_OFFSET ( 5, 0, .BEHIND. ) ;
#224 = FACE_OUTER_BOUND ( 'NONE', #148, .T. ) ;
#225 = SECURITY_CLASSIFICATION ( '', '', #63 ) ;
#226 = AXIS2_PLACEMENT_3D ( 'NONE', #133, #192, #215 ) ;
#227 = ORIENTED_EDGE ( 'NONE', *, *, #167, .F. ) ;
#228 = DIRECTION ( 'NONE',  ( -0.000000000000000000, -1.000000000000000000, -0.000000000000000000 ) ) ;
#229 = CARTESIAN_POINT ( 'NONE',  ( 0.000000000000000000, 0.000000000000000000, -0.1250000000000000555 ) ) ;
#230 = CARTESIAN_POINT ( 'NONE',  ( 4.304633499002945620E-17, 0.09400000000000001410, 0.3514999999999999236 ) ) ;
#231 = UNCERTAINTY_MEASURE_WITH_UNIT (LENGTH_MEASURE( 1.000000000000000082E-05 ), #197, 'distance_accuracy_value', 'NONE');
#232 = DIRECTION ( 'NONE',  ( 0.000000000000000000, 1.000000000000000000, 0.000000000000000000 ) ) ;
#233 = ORIENTED_EDGE ( 'NONE', *, *, #132, .T. ) ;
#234 = DIRECTION ( 'NONE',  ( -0.000000000000000000, -1.000000000000000000, -0.000000000000000000 ) ) ;
#235 = CARTESIAN_POINT ( 'NONE',  ( 1.530808498934192125E-17, 0.09400000000000001410, 0.1250000000000000555 ) ) ;
#236 = APPROVAL_STATUS ( 'not_yet_approved' ) ;
#237 = APPROVAL_DATE_TIME ( #190, #208 ) ;
#238 = ORIENTED_EDGE ( 'NONE', *, *, #29, .T. ) ;
#239 = CC_DESIGN_DATE_AND_TIME_ASSIGNMENT ( #114, #178, ( #225 ) ) ;
#240 = FACE_BOUND ( 'NONE', #242, .T. ) ;
#241 = VERTEX_POINT ( 'NONE', #79 ) ;
#242 = EDGE_LOOP ( 'NONE', ( #47, #199 ) ) ;
#243 = VECTOR ( 'NONE', #59, 39.37007874015748143 ) ;
#244 = APPROVAL ( #236, 'UNSPECIFIED' ) ;
#245 = PERSON_AND_ORGANIZATION ( #157, #188 ) ;
#246 = ORIENTED_EDGE ( 'NONE', *, *, #172, .F. ) ;
#247 = DIMENSIONAL_EXPONENTS ( 1.000000000000000000, 0.000000000000000000, 0.000000000000000000, 0.000000000000000000, 0.000000000000000000, 0.000000000000000000, 0.000000000000000000 ) ;
#248 = ADVANCED_FACE ( 'NONE', ( #37, #240 ), #154, .F. ) ;
#249 = CARTESIAN_POINT ( 'NONE',  ( 0.000000000000000000, 0.09400000000000001410, 0.000000000000000000 ) ) ;
#250 = LINE ( 'NONE', #36, #143 ) ;
#251 = DIRECTION ( 'NONE',  ( -0.000000000000000000, -1.000000000000000000, -0.000000000000000000 ) ) ;
#252 = AXIS2_PLACEMENT_3D ( 'NONE', #83, #160, #2 ) ;
ENDSEC;
END-ISO-10303-21;
