ISO-10303-21;
HEADER;
FILE_DESCRIPTION (( 'STEP AP203' ),
    '1' );
FILE_NAME ('GSK-60-K.STEP',
    '2025-08-26T17:04:29',
    ( '' ),
    ( '' ),
    'SwSTEP 2.0',
    'SolidWorks 2018',
    '' );
FILE_SCHEMA (( 'CONFIG_CONTROL_DESIGN' ));
ENDSEC;

DATA;
#1 =( NAMED_UNIT ( * ) PLANE_ANGLE_UNIT ( ) SI_UNIT ( $, .RADIAN. ) );
#2 = CYLINDRICAL_SURFACE ( 'NONE', #243, 0.4684999999999999165 ) ;
#3 = COORDINATED_UNIVERSAL_TIME_OFFSET ( 5, 0, .BEHIND. ) ;
#4 = AXIS2_PLACEMENT_3D ( 'NONE', #213, #92, #12 ) ;
#5 = AXIS2_PLACEMENT_3D ( 'NONE', #50, #75, #214 ) ;
#6 = ORIENTED_EDGE ( 'NONE', *, *, #105, .T. ) ;
#7 = COORDINATED_UNIVERSAL_TIME_OFFSET ( 5, 0, .BEHIND. ) ;
#8 = ORIENTED_EDGE ( 'NONE', *, *, #63, .T. ) ;
#9 = CC_DESIGN_DATE_AND_TIME_ASSIGNMENT ( #18, #156, ( #193 ) ) ;
#10 = CARTESIAN_POINT ( 'NONE',  ( 0.000000000000000000, 0.06199999999999999956, 0.000000000000000000 ) ) ;
#11 = ORIENTED_EDGE ( 'NONE', *, *, #79, .F. ) ;
#12 = DIRECTION ( 'NONE',  ( 0.000000000000000000, 0.000000000000000000, 1.000000000000000000 ) ) ;
#13 = LINE ( 'NONE', #157, #59 ) ;
#14 = DIRECTION ( 'NONE',  ( 0.000000000000000000, 0.000000000000000000, 1.000000000000000000 ) ) ;
#15 = DATE_AND_TIME ( #104, #117 ) ;
#16 = CARTESIAN_POINT ( 'NONE',  ( 0.000000000000000000, 0.000000000000000000, -0.4684999999999999165 ) ) ;
#17 = CC_DESIGN_APPROVAL ( #96, ( #193 ) ) ;
#18 = DATE_AND_TIME ( #67, #122 ) ;
#19 = AXIS2_PLACEMENT_3D ( 'NONE', #247, #133, #14 ) ;
#20 = CARTESIAN_POINT ( 'NONE',  ( 5.737470254005348781E-17, 0.06199999999999999956, 0.4684999999999999165 ) ) ;
#21 = APPROVAL_STATUS ( 'not_yet_approved' ) ;
#22 = PERSON_AND_ORGANIZATION_ROLE ( 'creator' ) ;
#23 = PRODUCT ( 'GSK-60-K', 'GSK-60-K', '', ( #236 ) ) ;
#24 = VERTEX_POINT ( 'NONE', #94 ) ;
#25 = PERSON_AND_ORGANIZATION_ROLE ( 'creator' ) ;
#26 = CIRCLE ( 'NONE', #107, 0.4684999999999999165 ) ;
#27 = APPROVAL ( #82, 'UNSPECIFIED' ) ;
#28 = ADVANCED_FACE ( 'NONE', ( #39 ), #230, .F. ) ;
#29 = ORIENTED_EDGE ( 'NONE', *, *, #127, .T. ) ;
#30 = CC_DESIGN_APPROVAL ( #27, ( #64 ) ) ;
#31 = ORIENTED_EDGE ( 'NONE', *, *, #63, .F. ) ;
#32 = CARTESIAN_POINT ( 'NONE',  ( 0.000000000000000000, 0.06199999999999999956, 0.000000000000000000 ) ) ;
#33 = CIRCLE ( 'NONE', #211, 0.4684999999999999165 ) ;
#34 = AXIS2_PLACEMENT_3D ( 'NONE', #181, #185, #102 ) ;
#35 = ORIENTED_EDGE ( 'NONE', *, *, #127, .F. ) ;
#36 = DIRECTION ( 'NONE',  ( 0.000000000000000000, 0.000000000000000000, -1.000000000000000000 ) ) ;
#37 = CARTESIAN_POINT ( 'NONE',  ( 0.000000000000000000, 0.000000000000000000, 0.000000000000000000 ) ) ;
#38 = PERSON_AND_ORGANIZATION_ROLE ( 'design_supplier' ) ;
#39 = FACE_OUTER_BOUND ( 'NONE', #140, .T. ) ;
#40 = CC_DESIGN_PERSON_AND_ORGANIZATION_ASSIGNMENT ( #113, #38, ( #64 ) ) ;
#41 = APPROVAL_ROLE ( '' ) ;
#42 = PERSON_AND_ORGANIZATION_ROLE ( 'design_owner' ) ;
#43 = MANIFOLD_SOLID_BREP ( 'Boss-Extrude1', #89 ) ;
#44 = ORGANIZATION ( 'UNSPECIFIED', 'UNSPECIFIED', '' ) ;
#45 = CC_DESIGN_PERSON_AND_ORGANIZATION_ASSIGNMENT ( #168, #22, ( #64 ) ) ;
#46 = ORIENTED_EDGE ( 'NONE', *, *, #233, .T. ) ;
#47 = ADVANCED_FACE ( 'NONE', ( #66, #238 ), #110, .T. ) ;
#48 = APPROVAL_DATE_TIME ( #15, #27 ) ;
#49 = CYLINDRICAL_SURFACE ( 'NONE', #98, 0.1912500000000000033 ) ;
#50 = CARTESIAN_POINT ( 'NONE',  ( 0.000000000000000000, 0.000000000000000000, 0.000000000000000000 ) ) ;
#51 = DIRECTION ( 'NONE',  ( 0.000000000000000000, 0.000000000000000000, 1.000000000000000000 ) ) ;
#52 = DIRECTION ( 'NONE',  ( 0.000000000000000000, 1.000000000000000000, 0.000000000000000000 ) ) ;
#53 = CARTESIAN_POINT ( 'NONE',  ( 0.000000000000000000, 0.000000000000000000, 0.000000000000000000 ) ) ;
#54 = CARTESIAN_POINT ( 'NONE',  ( 0.000000000000000000, 0.06199999999999999956, 0.000000000000000000 ) ) ;
#55 = DIRECTION ( 'NONE',  ( -0.000000000000000000, -1.000000000000000000, -0.000000000000000000 ) ) ;
#56 = APPLICATION_PROTOCOL_DEFINITION ( 'international standard', 'config_control_design', 1994, #139 ) ;
#57 = ORIENTED_EDGE ( 'NONE', *, *, #72, .T. ) ;
#58 = CARTESIAN_POINT ( 'NONE',  ( 0.000000000000000000, 0.06199999999999999956, 0.000000000000000000 ) ) ;
#59 = VECTOR ( 'NONE', #78, 39.37007874015748143 ) ;
#60 = PERSON_AND_ORGANIZATION ( #205, #44 ) ;
#61 = ORIENTED_EDGE ( 'NONE', *, *, #119, .F. ) ;
#62 = FACE_OUTER_BOUND ( 'NONE', #251, .T. ) ;
#63 = EDGE_CURVE ( 'NONE', #229, #224, #146, .T. ) ;
#64 = PRODUCT_DEFINITION_FORMATION_WITH_SPECIFIED_SOURCE ( 'ANY', '', #23, .NOT_KNOWN. ) ;
#65 = EDGE_LOOP ( 'NONE', ( #164, #130, #46, #108 ) ) ;
#66 = FACE_OUTER_BOUND ( 'NONE', #217, .T. ) ;
#67 = CALENDAR_DATE ( 2025, 26, 8 ) ;
#68 = VERTEX_POINT ( 'NONE', #136 ) ;
#69 = EDGE_CURVE ( 'NONE', #143, #24, #101, .T. ) ;
#70 = LENGTH_MEASURE_WITH_UNIT ( LENGTH_MEASURE( 0.02539999999999999897 ), #239 );
#71 = DIRECTION ( 'NONE',  ( -0.000000000000000000, -1.000000000000000000, -0.000000000000000000 ) ) ;
#72 = EDGE_CURVE ( 'NONE', #224, #219, #167, .T. ) ;
#73 = CIRCLE ( 'NONE', #208, 0.1912500000000000033 ) ;
#74 = CARTESIAN_POINT ( 'NONE',  ( 0.000000000000000000, 0.06199999999999999956, -0.1912500000000000033 ) ) ;
#75 = DIRECTION ( 'NONE',  ( 0.000000000000000000, 1.000000000000000000, 0.000000000000000000 ) ) ;
#76 = DIRECTION ( 'NONE',  ( 0.000000000000000000, 1.000000000000000000, 0.000000000000000000 ) ) ;
#77 = DATE_AND_TIME ( #234, #178 ) ;
#78 = DIRECTION ( 'NONE',  ( -0.000000000000000000, -1.000000000000000000, -0.000000000000000000 ) ) ;
#79 = EDGE_CURVE ( 'NONE', #229, #150, #244, .T. ) ;
#80 = FACE_OUTER_BOUND ( 'NONE', #65, .T. ) ;
#81 = UNCERTAINTY_MEASURE_WITH_UNIT (LENGTH_MEASURE( 1.000000000000000082E-05 ), #118, 'distance_accuracy_value', 'NONE');
#82 = APPROVAL_STATUS ( 'not_yet_approved' ) ;
#83 = LOCAL_TIME ( 13, 4, 29.00000000000000000, #3 ) ;
#84 = ORIENTED_EDGE ( 'NONE', *, *, #148, .F. ) ;
#85 = FACE_BOUND ( 'NONE', #161, .T. ) ;
#86 = EDGE_CURVE ( 'NONE', #24, #143, #194, .T. ) ;
#87 = SECURITY_CLASSIFICATION ( '', '', #221 ) ;
#88 = EDGE_LOOP ( 'NONE', ( #198, #6, #154, #35 ) ) ;
#89 = CLOSED_SHELL ( 'NONE', ( #28, #242, #47, #191, #147, #225 ) ) ;
#90 = LINE ( 'NONE', #20, #184 ) ;
#91 = CARTESIAN_POINT ( 'NONE',  ( 0.000000000000000000, 0.000000000000000000, 0.000000000000000000 ) ) ;
#92 = DIRECTION ( 'NONE',  ( 0.000000000000000000, 1.000000000000000000, 0.000000000000000000 ) ) ;
#93 = VERTEX_POINT ( 'NONE', #246 ) ;
#94 = CARTESIAN_POINT ( 'NONE',  ( 5.737470254005348781E-17, 0.000000000000000000, 0.4684999999999999165 ) ) ;
#95 = PERSON_AND_ORGANIZATION ( #205, #44 ) ;
#96 = APPROVAL ( #21, 'UNSPECIFIED' ) ;
#97 = CARTESIAN_POINT ( 'NONE',  ( 2.342137003369313061E-17, 0.06199999999999999956, 0.1912500000000000033 ) ) ;
#98 = AXIS2_PLACEMENT_3D ( 'NONE', #121, #55, #159 ) ;
#99 = APPLICATION_PROTOCOL_DEFINITION ( 'international standard', 'config_control_design', 1994, #218 ) ;
#100 = APPROVAL_STATUS ( 'not_yet_approved' ) ;
#101 = CIRCLE ( 'NONE', #4, 0.4684999999999999165 ) ;
#102 = DIRECTION ( 'NONE',  ( 0.000000000000000000, -0.000000000000000000, 1.000000000000000000 ) ) ;
#103 = AXIS2_PLACEMENT_3D ( 'NONE', #114, #151, #36 ) ;
#104 = CALENDAR_DATE ( 2025, 26, 8 ) ;
#105 = EDGE_CURVE ( 'NONE', #224, #229, #112, .T. ) ;
#106 = APPROVAL_DATE_TIME ( #129, #96 ) ;
#107 = AXIS2_PLACEMENT_3D ( 'NONE', #58, #138, #220 ) ;
#108 = ORIENTED_EDGE ( 'NONE', *, *, #69, .T. ) ;
#109 = ORIENTED_EDGE ( 'NONE', *, *, #69, .F. ) ;
#110 = PLANE ( 'NONE',  #245 ) ;
#111 = DIRECTION ( 'NONE',  ( 0.000000000000000000, 0.000000000000000000, 1.000000000000000000 ) ) ;
#112 = CIRCLE ( 'NONE', #19, 0.1912500000000000033 ) ;
#113 = PERSON_AND_ORGANIZATION ( #205, #44 ) ;
#114 = CARTESIAN_POINT ( 'NONE',  ( 0.000000000000000000, 0.06199999999999999956, 0.000000000000000000 ) ) ;
#115 = DIRECTION ( 'NONE',  ( 0.000000000000000000, 1.000000000000000000, 0.000000000000000000 ) ) ;
#116 = COORDINATED_UNIVERSAL_TIME_OFFSET ( 5, 0, .BEHIND. ) ;
#117 = LOCAL_TIME ( 13, 4, 29.00000000000000000, #116 ) ;
#118 =( CONVERSION_BASED_UNIT ( 'INCH', #70 ) LENGTH_UNIT ( ) NAMED_UNIT ( #165 ) );
#119 = EDGE_CURVE ( 'NONE', #150, #219, #73, .T. ) ;
#120 = CARTESIAN_POINT ( 'NONE',  ( 0.000000000000000000, 0.000000000000000000, -0.1912500000000000033 ) ) ;
#121 = CARTESIAN_POINT ( 'NONE',  ( 0.000000000000000000, 0.06199999999999999956, 0.000000000000000000 ) ) ;
#122 = LOCAL_TIME ( 13, 4, 29.00000000000000000, #227 ) ;
#123 = ORIENTED_EDGE ( 'NONE', *, *, #145, .T. ) ;
#124 = AXIS2_PLACEMENT_3D ( 'NONE', #53, #250, #141 ) ;
#125 = DATE_AND_TIME ( #248, #83 ) ;
#126 = CIRCLE ( 'NONE', #5, 0.1912500000000000033 ) ;
#127 = EDGE_CURVE ( 'NONE', #219, #150, #126, .T. ) ;
#128 = CC_DESIGN_PERSON_AND_ORGANIZATION_ASSIGNMENT ( #60, #204, ( #87 ) ) ;
#129 = DATE_AND_TIME ( #160, #216 ) ;
#130 = ORIENTED_EDGE ( 'NONE', *, *, #145, .F. ) ;
#131 = APPROVAL_PERSON_ORGANIZATION ( #228, #199, #207 ) ;
#132 = VECTOR ( 'NONE', #249, 39.37007874015748143 ) ;
#133 = DIRECTION ( 'NONE',  ( 0.000000000000000000, 1.000000000000000000, 0.000000000000000000 ) ) ;
#134 = DIRECTION ( 'NONE',  ( 0.000000000000000000, 1.000000000000000000, 0.000000000000000000 ) ) ;
#135 = DESIGN_CONTEXT ( 'detailed design', #139, 'design' ) ;
#136 = CARTESIAN_POINT ( 'NONE',  ( 5.737470254005348781E-17, 0.06199999999999999956, 0.4684999999999999165 ) ) ;
#137 = CC_DESIGN_APPROVAL ( #199, ( #87 ) ) ;
#138 = DIRECTION ( 'NONE',  ( 0.000000000000000000, 1.000000000000000000, 0.000000000000000000 ) ) ;
#139 = APPLICATION_CONTEXT ( 'configuration controlled 3d designs of mechanical parts and assemblies' ) ;
#140 = EDGE_LOOP ( 'NONE', ( #8, #57, #61, #11 ) ) ;
#141 = DIRECTION ( 'NONE',  ( 1.000000000000000000, 0.000000000000000000, 0.000000000000000000 ) ) ;
#142 = CARTESIAN_POINT ( 'NONE',  ( 2.342137003369313061E-17, 0.000000000000000000, 0.1912500000000000033 ) ) ;
#143 = VERTEX_POINT ( 'NONE', #16 ) ;
#144 = ORIENTED_EDGE ( 'NONE', *, *, #86, .F. ) ;
#145 = EDGE_CURVE ( 'NONE', #93, #68, #33, .T. ) ;
#146 = CIRCLE ( 'NONE', #166, 0.1912500000000000033 ) ;
#147 = ADVANCED_FACE ( 'NONE', ( #80 ), #241, .T. ) ;
#148 = EDGE_CURVE ( 'NONE', #68, #93, #26, .T. ) ;
#149 = ORIENTED_EDGE ( 'NONE', *, *, #233, .F. ) ;
#150 = VERTEX_POINT ( 'NONE', #120 ) ;
#151 = DIRECTION ( 'NONE',  ( -0.000000000000000000, -1.000000000000000000, -0.000000000000000000 ) ) ;
#152 = PRODUCT_DEFINITION_SHAPE ( 'NONE', 'NONE',  #193 ) ;
#153 = DIRECTION ( 'NONE',  ( -0.000000000000000000, -1.000000000000000000, -0.000000000000000000 ) ) ;
#154 = ORIENTED_EDGE ( 'NONE', *, *, #79, .T. ) ;
#155 = SHAPE_DEFINITION_REPRESENTATION ( #152, #174 ) ;
#156 = DATE_TIME_ROLE ( 'creation_date' ) ;
#157 = CARTESIAN_POINT ( 'NONE',  ( 0.000000000000000000, 0.06199999999999999956, -0.4684999999999999165 ) ) ;
#158 = CC_DESIGN_PERSON_AND_ORGANIZATION_ASSIGNMENT ( #187, #25, ( #193 ) ) ;
#159 = DIRECTION ( 'NONE',  ( 0.000000000000000000, 0.000000000000000000, -1.000000000000000000 ) ) ;
#160 = CALENDAR_DATE ( 2025, 26, 8 ) ;
#161 = EDGE_LOOP ( 'NONE', ( #188, #29 ) ) ;
#162 = PRODUCT_RELATED_PRODUCT_CATEGORY ( 'detail', '', ( #23 ) ) ;
#163 =( GEOMETRIC_REPRESENTATION_CONTEXT ( 3 ) GLOBAL_UNCERTAINTY_ASSIGNED_CONTEXT ( ( #81 ) ) GLOBAL_UNIT_ASSIGNED_CONTEXT ( ( #118, #1, #183 ) ) REPRESENTATION_CONTEXT ( 'NONE', 'WORKASPACE' ) );
#164 = ORIENTED_EDGE ( 'NONE', *, *, #197, .F. ) ;
#165 = DIMENSIONAL_EXPONENTS ( 1.000000000000000000, 0.000000000000000000, 0.000000000000000000, 0.000000000000000000, 0.000000000000000000, 0.000000000000000000, 0.000000000000000000 ) ;
#166 = AXIS2_PLACEMENT_3D ( 'NONE', #10, #134, #232 ) ;
#167 = LINE ( 'NONE', #195, #132 ) ;
#168 = PERSON_AND_ORGANIZATION ( #205, #44 ) ;
#169 = APPROVAL_PERSON_ORGANIZATION ( #223, #27, #41 ) ;
#170 = ORIENTED_EDGE ( 'NONE', *, *, #197, .T. ) ;
#171 = APPROVAL_DATE_TIME ( #77, #199 ) ;
#172 = ORIENTED_EDGE ( 'NONE', *, *, #86, .T. ) ;
#173 = DIRECTION ( 'NONE',  ( 0.000000000000000000, 0.000000000000000000, -1.000000000000000000 ) ) ;
#174 = ADVANCED_BREP_SHAPE_REPRESENTATION ( 'GSK-60-K', ( #43, #124 ), #163 ) ;
#175 = FACE_OUTER_BOUND ( 'NONE', #88, .T. ) ;
#176 = CARTESIAN_POINT ( 'NONE',  ( 0.000000000000000000, 0.06199999999999999956, 0.000000000000000000 ) ) ;
#177 = DIRECTION ( 'NONE',  ( 0.000000000000000000, 1.000000000000000000, 0.000000000000000000 ) ) ;
#178 = LOCAL_TIME ( 13, 4, 29.00000000000000000, #189 ) ;
#179 = DIRECTION ( 'NONE',  ( 0.000000000000000000, 0.000000000000000000, -1.000000000000000000 ) ) ;
#180 = CC_DESIGN_PERSON_AND_ORGANIZATION_ASSIGNMENT ( #95, #42, ( #23 ) ) ;
#181 = CARTESIAN_POINT ( 'NONE',  ( 0.000000000000000000, 0.000000000000000000, 0.000000000000000000 ) ) ;
#182 = EDGE_LOOP ( 'NONE', ( #31, #203 ) ) ;
#183 =( NAMED_UNIT ( * ) SI_UNIT ( $, .STERADIAN. ) SOLID_ANGLE_UNIT ( ) );
#184 = VECTOR ( 'NONE', #240, 39.37007874015748143 ) ;
#185 = DIRECTION ( 'NONE',  ( 0.000000000000000000, 1.000000000000000000, 0.000000000000000000 ) ) ;
#186 = CC_DESIGN_DATE_AND_TIME_ASSIGNMENT ( #125, #252, ( #87 ) ) ;
#187 = PERSON_AND_ORGANIZATION ( #205, #44 ) ;
#188 = ORIENTED_EDGE ( 'NONE', *, *, #119, .T. ) ;
#189 = COORDINATED_UNIVERSAL_TIME_OFFSET ( 5, 0, .BEHIND. ) ;
#190 = AXIS2_PLACEMENT_3D ( 'NONE', #32, #71, #173 ) ;
#191 = ADVANCED_FACE ( 'NONE', ( #226, #85 ), #235, .F. ) ;
#192 = APPROVAL_PERSON_ORGANIZATION ( #201, #96, #237 ) ;
#193 = PRODUCT_DEFINITION ( 'UNKNOWN', '', #64, #135 ) ;
#194 = CIRCLE ( 'NONE', #222, 0.4684999999999999165 ) ;
#195 = CARTESIAN_POINT ( 'NONE',  ( 2.342137003369313061E-17, 0.06199999999999999956, 0.1912500000000000033 ) ) ;
#196 = DIRECTION ( 'NONE',  ( 0.000000000000000000, 0.000000000000000000, 1.000000000000000000 ) ) ;
#197 = EDGE_CURVE ( 'NONE', #68, #24, #90, .T. ) ;
#198 = ORIENTED_EDGE ( 'NONE', *, *, #72, .F. ) ;
#199 = APPROVAL ( #100, 'UNSPECIFIED' ) ;
#200 = CARTESIAN_POINT ( 'NONE',  ( 0.000000000000000000, 0.06199999999999999956, 0.000000000000000000 ) ) ;
#201 = PERSON_AND_ORGANIZATION ( #205, #44 ) ;
#202 = DIRECTION ( 'NONE',  ( -0.000000000000000000, -1.000000000000000000, -0.000000000000000000 ) ) ;
#203 = ORIENTED_EDGE ( 'NONE', *, *, #105, .F. ) ;
#204 = PERSON_AND_ORGANIZATION_ROLE ( 'classification_officer' ) ;
#205 = PERSON ( 'UNSPECIFIED', 'UNSPECIFIED', 'UNSPECIFIED', ('UNSPECIFIED'), ('UNSPECIFIED'), ('UNSPECIFIED') ) ;
#206 = VECTOR ( 'NONE', #202, 39.37007874015748143 ) ;
#207 = APPROVAL_ROLE ( '' ) ;
#208 = AXIS2_PLACEMENT_3D ( 'NONE', #37, #52, #196 ) ;
#209 = CC_DESIGN_SECURITY_CLASSIFICATION ( #87, ( #64 ) ) ;
#210 = CARTESIAN_POINT ( 'NONE',  ( 0.000000000000000000, 0.06199999999999999956, -0.1912500000000000033 ) ) ;
#211 = AXIS2_PLACEMENT_3D ( 'NONE', #176, #76, #51 ) ;
#212 = EDGE_LOOP ( 'NONE', ( #109, #144 ) ) ;
#213 = CARTESIAN_POINT ( 'NONE',  ( 0.000000000000000000, 0.000000000000000000, 0.000000000000000000 ) ) ;
#214 = DIRECTION ( 'NONE',  ( 0.000000000000000000, 0.000000000000000000, 1.000000000000000000 ) ) ;
#215 = DIRECTION ( 'NONE',  ( 0.000000000000000000, -0.000000000000000000, 1.000000000000000000 ) ) ;
#216 = LOCAL_TIME ( 13, 4, 29.00000000000000000, #7 ) ;
#217 = EDGE_LOOP ( 'NONE', ( #123, #231 ) ) ;
#218 = APPLICATION_CONTEXT ( 'configuration controlled 3d designs of mechanical parts and assemblies' ) ;
#219 = VERTEX_POINT ( 'NONE', #142 ) ;
#220 = DIRECTION ( 'NONE',  ( 0.000000000000000000, 0.000000000000000000, 1.000000000000000000 ) ) ;
#221 = SECURITY_CLASSIFICATION_LEVEL ( 'unclassified' ) ;
#222 = AXIS2_PLACEMENT_3D ( 'NONE', #91, #177, #111 ) ;
#223 = PERSON_AND_ORGANIZATION ( #205, #44 ) ;
#224 = VERTEX_POINT ( 'NONE', #97 ) ;
#225 = ADVANCED_FACE ( 'NONE', ( #175 ), #49, .F. ) ;
#226 = FACE_OUTER_BOUND ( 'NONE', #212, .T. ) ;
#227 = COORDINATED_UNIVERSAL_TIME_OFFSET ( 5, 0, .BEHIND. ) ;
#228 = PERSON_AND_ORGANIZATION ( #205, #44 ) ;
#229 = VERTEX_POINT ( 'NONE', #210 ) ;
#230 = CYLINDRICAL_SURFACE ( 'NONE', #190, 0.1912500000000000033 ) ;
#231 = ORIENTED_EDGE ( 'NONE', *, *, #148, .T. ) ;
#232 = DIRECTION ( 'NONE',  ( 0.000000000000000000, 0.000000000000000000, 1.000000000000000000 ) ) ;
#233 = EDGE_CURVE ( 'NONE', #93, #143, #13, .T. ) ;
#234 = CALENDAR_DATE ( 2025, 26, 8 ) ;
#235 = PLANE ( 'NONE',  #34 ) ;
#236 = MECHANICAL_CONTEXT ( 'NONE', #218, 'mechanical' ) ;
#237 = APPROVAL_ROLE ( '' ) ;
#238 = FACE_BOUND ( 'NONE', #182, .T. ) ;
#239 =( LENGTH_UNIT ( ) NAMED_UNIT ( * ) SI_UNIT ( $, .METRE. ) );
#240 = DIRECTION ( 'NONE',  ( -0.000000000000000000, -1.000000000000000000, -0.000000000000000000 ) ) ;
#241 = CYLINDRICAL_SURFACE ( 'NONE', #103, 0.4684999999999999165 ) ;
#242 = ADVANCED_FACE ( 'NONE', ( #62 ), #2, .T. ) ;
#243 = AXIS2_PLACEMENT_3D ( 'NONE', #54, #153, #179 ) ;
#244 = LINE ( 'NONE', #74, #206 ) ;
#245 = AXIS2_PLACEMENT_3D ( 'NONE', #200, #115, #215 ) ;
#246 = CARTESIAN_POINT ( 'NONE',  ( 0.000000000000000000, 0.06199999999999999956, -0.4684999999999999165 ) ) ;
#247 = CARTESIAN_POINT ( 'NONE',  ( 0.000000000000000000, 0.06199999999999999956, 0.000000000000000000 ) ) ;
#248 = CALENDAR_DATE ( 2025, 26, 8 ) ;
#249 = DIRECTION ( 'NONE',  ( -0.000000000000000000, -1.000000000000000000, -0.000000000000000000 ) ) ;
#250 = DIRECTION ( 'NONE',  ( 0.000000000000000000, 0.000000000000000000, 1.000000000000000000 ) ) ;
#251 = EDGE_LOOP ( 'NONE', ( #84, #170, #172, #149 ) ) ;
#252 = DATE_TIME_ROLE ( 'classification_date' ) ;
ENDSEC;
END-ISO-10303-21;
