ISO-10303-21;
HEADER;
FILE_DESCRIPTION (( 'STEP AP203' ),
    '1' );
FILE_NAME ('GSK-60-T.STEP',
    '2025-08-26T17:26:50',
    ( '' ),
    ( '' ),
    'SwSTEP 2.0',
    'SolidWorks 2018',
    '' );
FILE_SCHEMA (( 'CONFIG_CONTROL_DESIGN' ));
ENDSEC;

DATA;
#1 = PRODUCT_DEFINITION_FORMATION_WITH_SPECIFIED_SOURCE ( 'ANY', '', #187, .NOT_KNOWN. ) ;
#2 = CYLINDRICAL_SURFACE ( 'NONE', #40, 0.4685000000000000275 ) ;
#3 = ORIENTED_EDGE ( 'NONE', *, *, #98, .F. ) ;
#4 = LENGTH_MEASURE_WITH_UNIT ( LENGTH_MEASURE( 0.02539999999999999897 ), #182 );
#5 = AXIS2_PLACEMENT_3D ( 'NONE', #141, #27, #46 ) ;
#6 = DIRECTION ( 'NONE',  ( -0.000000000000000000, -1.000000000000000000, -0.000000000000000000 ) ) ;
#7 = DIRECTION ( 'NONE',  ( 0.000000000000000000, 0.000000000000000000, -1.000000000000000000 ) ) ;
#8 = DATE_AND_TIME ( #163, #172 ) ;
#9 = EDGE_LOOP ( 'NONE', ( #195, #19, #41, #143 ) ) ;
#10 = MECHANICAL_CONTEXT ( 'NONE', #221, 'mechanical' ) ;
#11 = ORIENTED_EDGE ( 'NONE', *, *, #89, .F. ) ;
#12 = AXIS2_PLACEMENT_3D ( 'NONE', #148, #61, #15 ) ;
#13 = PLANE ( 'NONE',  #204 ) ;
#14 = ADVANCED_FACE ( 'NONE', ( #198 ), #202, .T. ) ;
#15 = DIRECTION ( 'NONE',  ( 0.000000000000000000, -0.000000000000000000, 1.000000000000000000 ) ) ;
#16 = DIRECTION ( 'NONE',  ( 0.000000000000000000, 0.000000000000000000, 1.000000000000000000 ) ) ;
#17 = CARTESIAN_POINT ( 'NONE',  ( 0.000000000000000000, 0.06199999999999999956, 0.000000000000000000 ) ) ;
#18 = LOCAL_TIME ( 13, 26, 50.00000000000000000, #159 ) ;
#19 = ORIENTED_EDGE ( 'NONE', *, *, #245, .F. ) ;
#20 = EDGE_CURVE ( 'NONE', #32, #92, #153, .T. ) ;
#21 = EDGE_LOOP ( 'NONE', ( #214, #59 ) ) ;
#22 = AXIS2_PLACEMENT_3D ( 'NONE', #122, #184, #146 ) ;
#23 = APPROVAL_DATE_TIME ( #57, #130 ) ;
#24 = EDGE_LOOP ( 'NONE', ( #216, #213, #243, #176 ) ) ;
#25 = CARTESIAN_POINT ( 'NONE',  ( 0.000000000000000000, 0.06199999999999999956, 0.000000000000000000 ) ) ;
#26 = APPROVAL_PERSON_ORGANIZATION ( #226, #200, #133 ) ;
#27 = DIRECTION ( 'NONE',  ( 0.000000000000000000, 1.000000000000000000, 0.000000000000000000 ) ) ;
#28 = EDGE_CURVE ( 'NONE', #60, #237, #63, .T. ) ;
#29 = CARTESIAN_POINT ( 'NONE',  ( 2.342137003369313061E-17, 0.06199999999999999956, 0.1912500000000000033 ) ) ;
#30 = CARTESIAN_POINT ( 'NONE',  ( 0.000000000000000000, 0.000000000000000000, -0.4685000000000000275 ) ) ;
#31 = COORDINATED_UNIVERSAL_TIME_OFFSET ( 5, 0, .BEHIND. ) ;
#32 = VERTEX_POINT ( 'NONE', #99 ) ;
#33 = CARTESIAN_POINT ( 'NONE',  ( 0.000000000000000000, 0.000000000000000000, -0.1912500000000000033 ) ) ;
#34 = AXIS2_PLACEMENT_3D ( 'NONE', #88, #190, #108 ) ;
#35 = CARTESIAN_POINT ( 'NONE',  ( 0.000000000000000000, 0.000000000000000000, 0.000000000000000000 ) ) ;
#36 = PERSON_AND_ORGANIZATION_ROLE ( 'design_supplier' ) ;
#37 = ORGANIZATION ( 'UNSPECIFIED', 'UNSPECIFIED', '' ) ;
#38 = PERSON ( 'UNSPECIFIED', 'UNSPECIFIED', 'UNSPECIFIED', ('UNSPECIFIED'), ('UNSPECIFIED'), ('UNSPECIFIED') ) ;
#39 = ADVANCED_BREP_SHAPE_REPRESENTATION ( 'GSK-60-T', ( #94, #85 ), #109 ) ;
#40 = AXIS2_PLACEMENT_3D ( 'NONE', #84, #142, #80 ) ;
#41 = ORIENTED_EDGE ( 'NONE', *, *, #56, .T. ) ;
#42 = ORIENTED_EDGE ( 'NONE', *, *, #20, .F. ) ;
#43 = DATE_AND_TIME ( #62, #91 ) ;
#44 = ADVANCED_FACE ( 'NONE', ( #249 ), #210, .F. ) ;
#45 = DIRECTION ( 'NONE',  ( 0.000000000000000000, 1.000000000000000000, 0.000000000000000000 ) ) ;
#46 = DIRECTION ( 'NONE',  ( 0.000000000000000000, 0.000000000000000000, 1.000000000000000000 ) ) ;
#47 = DIRECTION ( 'NONE',  ( 0.000000000000000000, 1.000000000000000000, 0.000000000000000000 ) ) ;
#48 = DIRECTION ( 'NONE',  ( 0.000000000000000000, 1.000000000000000000, 0.000000000000000000 ) ) ;
#49 = CALENDAR_DATE ( 2025, 26, 8 ) ;
#50 = UNCERTAINTY_MEASURE_WITH_UNIT (LENGTH_MEASURE( 1.000000000000000082E-05 ), #205, 'distance_accuracy_value', 'NONE');
#51 = PERSON_AND_ORGANIZATION_ROLE ( 'classification_officer' ) ;
#52 = CYLINDRICAL_SURFACE ( 'NONE', #251, 0.1912500000000000033 ) ;
#53 = PRODUCT_RELATED_PRODUCT_CATEGORY ( 'detail', '', ( #187 ) ) ;
#54 = APPROVAL_PERSON_ORGANIZATION ( #218, #130, #66 ) ;
#55 = SHAPE_DEFINITION_REPRESENTATION ( #161, #39 ) ;
#56 = EDGE_CURVE ( 'NONE', #114, #60, #236, .T. ) ;
#57 = DATE_AND_TIME ( #49, #118 ) ;
#58 = ORIENTED_EDGE ( 'NONE', *, *, #28, .F. ) ;
#59 = ORIENTED_EDGE ( 'NONE', *, *, #89, .T. ) ;
#60 = VERTEX_POINT ( 'NONE', #30 ) ;
#61 = DIRECTION ( 'NONE',  ( 0.000000000000000000, 1.000000000000000000, 0.000000000000000000 ) ) ;
#62 = CALENDAR_DATE ( 2025, 26, 8 ) ;
#63 = CIRCLE ( 'NONE', #224, 0.4685000000000000275 ) ;
#64 = ORIENTED_EDGE ( 'NONE', *, *, #217, .T. ) ;
#65 = APPROVAL_STATUS ( 'not_yet_approved' ) ;
#66 = APPROVAL_ROLE ( '' ) ;
#67 = DIRECTION ( 'NONE',  ( 0.000000000000000000, 0.000000000000000000, 1.000000000000000000 ) ) ;
#68 = PERSON_AND_ORGANIZATION ( #38, #37 ) ;
#69 = ORIENTED_EDGE ( 'NONE', *, *, #56, .F. ) ;
#70 = AXIS2_PLACEMENT_3D ( 'NONE', #25, #180, #7 ) ;
#71 = CIRCLE ( 'NONE', #72, 0.1912500000000000033 ) ;
#72 = AXIS2_PLACEMENT_3D ( 'NONE', #169, #47, #105 ) ;
#73 = VERTEX_POINT ( 'NONE', #170 ) ;
#74 = PERSON_AND_ORGANIZATION ( #38, #37 ) ;
#75 = FACE_OUTER_BOUND ( 'NONE', #21, .T. ) ;
#76 = VERTEX_POINT ( 'NONE', #128 ) ;
#77 = ORIENTED_EDGE ( 'NONE', *, *, #235, .T. ) ;
#78 = AXIS2_PLACEMENT_3D ( 'NONE', #144, #45, #223 ) ;
#79 = VECTOR ( 'NONE', #129, 39.37007874015748143 ) ;
#80 = DIRECTION ( 'NONE',  ( 0.000000000000000000, 0.000000000000000000, -1.000000000000000000 ) ) ;
#81 = ADVANCED_FACE ( 'NONE', ( #212, #131 ), #13, .F. ) ;
#82 = CARTESIAN_POINT ( 'NONE',  ( 0.000000000000000000, 0.06199999999999999956, 0.000000000000000000 ) ) ;
#83 = ORIENTED_EDGE ( 'NONE', *, *, #175, .T. ) ;
#84 = CARTESIAN_POINT ( 'NONE',  ( 0.000000000000000000, 0.06199999999999999956, 0.000000000000000000 ) ) ;
#85 = AXIS2_PLACEMENT_3D ( 'NONE', #125, #207, #97 ) ;
#86 = CARTESIAN_POINT ( 'NONE',  ( 0.000000000000000000, 0.06199999999999999956, -0.1912500000000000033 ) ) ;
#87 = APPLICATION_CONTEXT ( 'configuration controlled 3d designs of mechanical parts and assemblies' ) ;
#88 = CARTESIAN_POINT ( 'NONE',  ( 0.000000000000000000, 0.06199999999999999956, 0.000000000000000000 ) ) ;
#89 = EDGE_CURVE ( 'NONE', #76, #114, #156, .T. ) ;
#90 = DESIGN_CONTEXT ( 'detailed design', #87, 'design' ) ;
#91 = LOCAL_TIME ( 13, 26, 50.00000000000000000, #201 ) ;
#92 = VERTEX_POINT ( 'NONE', #147 ) ;
#93 = AXIS2_PLACEMENT_3D ( 'NONE', #82, #120, #16 ) ;
#94 = MANIFOLD_SOLID_BREP ( 'Boss-Extrude1', #134 ) ;
#95 = CIRCLE ( 'NONE', #22, 0.1912500000000000033 ) ;
#96 = PLANE ( 'NONE',  #12 ) ;
#97 = DIRECTION ( 'NONE',  ( 1.000000000000000000, 0.000000000000000000, 0.000000000000000000 ) ) ;
#98 = EDGE_CURVE ( 'NONE', #92, #32, #71, .T. ) ;
#99 = CARTESIAN_POINT ( 'NONE',  ( 0.000000000000000000, 0.06199999999999999956, -0.1912500000000000033 ) ) ;
#100 = VECTOR ( 'NONE', #208, 39.37007874015748143 ) ;
#101 = ORIENTED_EDGE ( 'NONE', *, *, #183, .T. ) ;
#102 = APPROVAL_STATUS ( 'not_yet_approved' ) ;
#103 =( NAMED_UNIT ( * ) PLANE_ANGLE_UNIT ( ) SI_UNIT ( $, .RADIAN. ) );
#104 = DATE_TIME_ROLE ( 'creation_date' ) ;
#105 = DIRECTION ( 'NONE',  ( 0.000000000000000000, 0.000000000000000000, 1.000000000000000000 ) ) ;
#106 = PERSON_AND_ORGANIZATION ( #38, #37 ) ;
#107 = CC_DESIGN_SECURITY_CLASSIFICATION ( #155, ( #1 ) ) ;
#108 = DIRECTION ( 'NONE',  ( 0.000000000000000000, 0.000000000000000000, -1.000000000000000000 ) ) ;
#109 =( GEOMETRIC_REPRESENTATION_CONTEXT ( 3 ) GLOBAL_UNCERTAINTY_ASSIGNED_CONTEXT ( ( #50 ) ) GLOBAL_UNIT_ASSIGNED_CONTEXT ( ( #205, #103, #179 ) ) REPRESENTATION_CONTEXT ( 'NONE', 'WORKASPACE' ) );
#110 = LINE ( 'NONE', #86, #100 ) ;
#111 = ORIENTED_EDGE ( 'NONE', *, *, #115, .F. ) ;
#112 = CC_DESIGN_PERSON_AND_ORGANIZATION_ASSIGNMENT ( #113, #189, ( #187 ) ) ;
#113 = PERSON_AND_ORGANIZATION ( #38, #37 ) ;
#114 = VERTEX_POINT ( 'NONE', #246 ) ;
#115 = EDGE_CURVE ( 'NONE', #32, #206, #110, .T. ) ;
#116 = ADVANCED_FACE ( 'NONE', ( #75, #199 ), #96, .T. ) ;
#117 = PRODUCT_DEFINITION ( 'UNKNOWN', '', #1, #90 ) ;
#118 = LOCAL_TIME ( 13, 26, 50.00000000000000000, #209 ) ;
#119 = CIRCLE ( 'NONE', #93, 0.4685000000000000275 ) ;
#120 = DIRECTION ( 'NONE',  ( 0.000000000000000000, 1.000000000000000000, 0.000000000000000000 ) ) ;
#121 = EDGE_LOOP ( 'NONE', ( #58, #164 ) ) ;
#122 = CARTESIAN_POINT ( 'NONE',  ( 0.000000000000000000, 0.000000000000000000, 0.000000000000000000 ) ) ;
#123 = DIRECTION ( 'NONE',  ( -0.000000000000000000, -1.000000000000000000, -0.000000000000000000 ) ) ;
#124 = DIRECTION ( 'NONE',  ( 0.000000000000000000, 1.000000000000000000, 0.000000000000000000 ) ) ;
#125 = CARTESIAN_POINT ( 'NONE',  ( 0.000000000000000000, 0.000000000000000000, 0.000000000000000000 ) ) ;
#126 = APPROVAL ( #65, 'UNSPECIFIED' ) ;
#127 = CARTESIAN_POINT ( 'NONE',  ( 5.737470254005350013E-17, 0.06199999999999999956, 0.4685000000000000275 ) ) ;
#128 = CARTESIAN_POINT ( 'NONE',  ( 5.737470254005350013E-17, 0.06199999999999999956, 0.4685000000000000275 ) ) ;
#129 = DIRECTION ( 'NONE',  ( -0.000000000000000000, -1.000000000000000000, -0.000000000000000000 ) ) ;
#130 = APPROVAL ( #102, 'UNSPECIFIED' ) ;
#131 = FACE_BOUND ( 'NONE', #174, .T. ) ;
#132 = EDGE_LOOP ( 'NONE', ( #42, #3 ) ) ;
#133 = APPROVAL_ROLE ( '' ) ;
#134 = CLOSED_SHELL ( 'NONE', ( #44, #165, #116, #81, #14, #203 ) ) ;
#135 = EDGE_LOOP ( 'NONE', ( #158, #64, #173, #111 ) ) ;
#136 = EDGE_CURVE ( 'NONE', #237, #60, #151, .T. ) ;
#137 = LINE ( 'NONE', #127, #231 ) ;
#138 = CC_DESIGN_APPROVAL ( #126, ( #117 ) ) ;
#139 = APPROVAL_DATE_TIME ( #186, #126 ) ;
#140 = CC_DESIGN_PERSON_AND_ORGANIZATION_ASSIGNMENT ( #150, #232, ( #1 ) ) ;
#141 = CARTESIAN_POINT ( 'NONE',  ( 0.000000000000000000, 0.000000000000000000, 0.000000000000000000 ) ) ;
#142 = DIRECTION ( 'NONE',  ( -0.000000000000000000, -1.000000000000000000, -0.000000000000000000 ) ) ;
#143 = ORIENTED_EDGE ( 'NONE', *, *, #28, .T. ) ;
#144 = CARTESIAN_POINT ( 'NONE',  ( 0.000000000000000000, 0.000000000000000000, 0.000000000000000000 ) ) ;
#145 = DIRECTION ( 'NONE',  ( 0.000000000000000000, -0.000000000000000000, 1.000000000000000000 ) ) ;
#146 = DIRECTION ( 'NONE',  ( 0.000000000000000000, 0.000000000000000000, 1.000000000000000000 ) ) ;
#147 = CARTESIAN_POINT ( 'NONE',  ( 2.342137003369313061E-17, 0.06199999999999999956, 0.1912500000000000033 ) ) ;
#148 = CARTESIAN_POINT ( 'NONE',  ( 0.000000000000000000, 0.06199999999999999956, 0.000000000000000000 ) ) ;
#149 = DIRECTION ( 'NONE',  ( 0.000000000000000000, 1.000000000000000000, 0.000000000000000000 ) ) ;
#150 = PERSON_AND_ORGANIZATION ( #38, #37 ) ;
#151 = CIRCLE ( 'NONE', #5, 0.4685000000000000275 ) ;
#152 = CC_DESIGN_PERSON_AND_ORGANIZATION_ASSIGNMENT ( #68, #227, ( #117 ) ) ;
#153 = CIRCLE ( 'NONE', #157, 0.1912500000000000033 ) ;
#154 = FACE_OUTER_BOUND ( 'NONE', #188, .T. ) ;
#155 = SECURITY_CLASSIFICATION ( '', '', #196 ) ;
#156 = CIRCLE ( 'NONE', #238, 0.4685000000000000275 ) ;
#157 = AXIS2_PLACEMENT_3D ( 'NONE', #192, #48, #67 ) ;
#158 = ORIENTED_EDGE ( 'NONE', *, *, #20, .T. ) ;
#159 = COORDINATED_UNIVERSAL_TIME_OFFSET ( 5, 0, .BEHIND. ) ;
#160 = VECTOR ( 'NONE', #6, 39.37007874015748143 ) ;
#161 = PRODUCT_DEFINITION_SHAPE ( 'NONE', 'NONE',  #117 ) ;
#162 = CC_DESIGN_DATE_AND_TIME_ASSIGNMENT ( #240, #104, ( #117 ) ) ;
#163 = CALENDAR_DATE ( 2025, 26, 8 ) ;
#164 = ORIENTED_EDGE ( 'NONE', *, *, #136, .F. ) ;
#165 = ADVANCED_FACE ( 'NONE', ( #154 ), #2, .T. ) ;
#166 = APPROVAL_ROLE ( '' ) ;
#167 = DIRECTION ( 'NONE',  ( 0.000000000000000000, 1.000000000000000000, 0.000000000000000000 ) ) ;
#168 = DIRECTION ( 'NONE',  ( -0.000000000000000000, -1.000000000000000000, -0.000000000000000000 ) ) ;
#169 = CARTESIAN_POINT ( 'NONE',  ( 0.000000000000000000, 0.06199999999999999956, 0.000000000000000000 ) ) ;
#170 = CARTESIAN_POINT ( 'NONE',  ( 2.342137003369313061E-17, 0.000000000000000000, 0.1912500000000000033 ) ) ;
#171 = CC_DESIGN_DATE_AND_TIME_ASSIGNMENT ( #43, #211, ( #155 ) ) ;
#172 = LOCAL_TIME ( 13, 26, 50.00000000000000000, #215 ) ;
#173 = ORIENTED_EDGE ( 'NONE', *, *, #235, .F. ) ;
#174 = EDGE_LOOP ( 'NONE', ( #77, #101 ) ) ;
#175 = EDGE_CURVE ( 'NONE', #76, #237, #137, .T. ) ;
#176 = ORIENTED_EDGE ( 'NONE', *, *, #183, .F. ) ;
#177 = CC_DESIGN_PERSON_AND_ORGANIZATION_ASSIGNMENT ( #252, #51, ( #155 ) ) ;
#178 = LOCAL_TIME ( 13, 26, 50.00000000000000000, #31 ) ;
#179 =( NAMED_UNIT ( * ) SI_UNIT ( $, .STERADIAN. ) SOLID_ANGLE_UNIT ( ) );
#180 = DIRECTION ( 'NONE',  ( -0.000000000000000000, -1.000000000000000000, -0.000000000000000000 ) ) ;
#181 = CC_DESIGN_PERSON_AND_ORGANIZATION_ASSIGNMENT ( #74, #36, ( #1 ) ) ;
#182 =( LENGTH_UNIT ( ) NAMED_UNIT ( * ) SI_UNIT ( $, .METRE. ) );
#183 = EDGE_CURVE ( 'NONE', #73, #206, #220, .T. ) ;
#184 = DIRECTION ( 'NONE',  ( 0.000000000000000000, 1.000000000000000000, 0.000000000000000000 ) ) ;
#185 = DIRECTION ( 'NONE',  ( 0.000000000000000000, 0.000000000000000000, 1.000000000000000000 ) ) ;
#186 = DATE_AND_TIME ( #248, #18 ) ;
#187 = PRODUCT ( 'GSK-60-T', 'GSK-60-T', '', ( #10 ) ) ;
#188 = EDGE_LOOP ( 'NONE', ( #11, #83, #228, #69 ) ) ;
#189 = PERSON_AND_ORGANIZATION_ROLE ( 'design_owner' ) ;
#190 = DIRECTION ( 'NONE',  ( -0.000000000000000000, -1.000000000000000000, -0.000000000000000000 ) ) ;
#191 = APPROVAL_STATUS ( 'not_yet_approved' ) ;
#192 = CARTESIAN_POINT ( 'NONE',  ( 0.000000000000000000, 0.06199999999999999956, 0.000000000000000000 ) ) ;
#193 = CC_DESIGN_APPROVAL ( #130, ( #1 ) ) ;
#194 = CALENDAR_DATE ( 2025, 26, 8 ) ;
#195 = ORIENTED_EDGE ( 'NONE', *, *, #175, .F. ) ;
#196 = SECURITY_CLASSIFICATION_LEVEL ( 'unclassified' ) ;
#197 = LINE ( 'NONE', #29, #160 ) ;
#198 = FACE_OUTER_BOUND ( 'NONE', #9, .T. ) ;
#199 = FACE_BOUND ( 'NONE', #132, .T. ) ;
#200 = APPROVAL ( #191, 'UNSPECIFIED' ) ;
#201 = COORDINATED_UNIVERSAL_TIME_OFFSET ( 5, 0, .BEHIND. ) ;
#202 = CYLINDRICAL_SURFACE ( 'NONE', #70, 0.4685000000000000275 ) ;
#203 = ADVANCED_FACE ( 'NONE', ( #250 ), #52, .F. ) ;
#204 = AXIS2_PLACEMENT_3D ( 'NONE', #229, #167, #145 ) ;
#205 =( CONVERSION_BASED_UNIT ( 'INCH', #4 ) LENGTH_UNIT ( ) NAMED_UNIT ( #222 ) );
#206 = VERTEX_POINT ( 'NONE', #33 ) ;
#207 = DIRECTION ( 'NONE',  ( 0.000000000000000000, 0.000000000000000000, 1.000000000000000000 ) ) ;
#208 = DIRECTION ( 'NONE',  ( -0.000000000000000000, -1.000000000000000000, -0.000000000000000000 ) ) ;
#209 = COORDINATED_UNIVERSAL_TIME_OFFSET ( 5, 0, .BEHIND. ) ;
#210 = CYLINDRICAL_SURFACE ( 'NONE', #34, 0.1912500000000000033 ) ;
#211 = DATE_TIME_ROLE ( 'classification_date' ) ;
#212 = FACE_OUTER_BOUND ( 'NONE', #121, .T. ) ;
#213 = ORIENTED_EDGE ( 'NONE', *, *, #98, .T. ) ;
#214 = ORIENTED_EDGE ( 'NONE', *, *, #245, .T. ) ;
#215 = COORDINATED_UNIVERSAL_TIME_OFFSET ( 5, 0, .BEHIND. ) ;
#216 = ORIENTED_EDGE ( 'NONE', *, *, #217, .F. ) ;
#217 = EDGE_CURVE ( 'NONE', #92, #73, #197, .T. ) ;
#218 = PERSON_AND_ORGANIZATION ( #38, #37 ) ;
#219 = CARTESIAN_POINT ( 'NONE',  ( 0.000000000000000000, 0.06199999999999999956, 0.000000000000000000 ) ) ;
#220 = CIRCLE ( 'NONE', #78, 0.1912500000000000033 ) ;
#221 = APPLICATION_CONTEXT ( 'configuration controlled 3d designs of mechanical parts and assemblies' ) ;
#222 = DIMENSIONAL_EXPONENTS ( 1.000000000000000000, 0.000000000000000000, 0.000000000000000000, 0.000000000000000000, 0.000000000000000000, 0.000000000000000000, 0.000000000000000000 ) ;
#223 = DIRECTION ( 'NONE',  ( 0.000000000000000000, 0.000000000000000000, 1.000000000000000000 ) ) ;
#224 = AXIS2_PLACEMENT_3D ( 'NONE', #35, #124, #185 ) ;
#225 = CARTESIAN_POINT ( 'NONE',  ( 5.737470254005350013E-17, 0.000000000000000000, 0.4685000000000000275 ) ) ;
#226 = PERSON_AND_ORGANIZATION ( #38, #37 ) ;
#227 = PERSON_AND_ORGANIZATION_ROLE ( 'creator' ) ;
#228 = ORIENTED_EDGE ( 'NONE', *, *, #136, .T. ) ;
#229 = CARTESIAN_POINT ( 'NONE',  ( 0.000000000000000000, 0.000000000000000000, 0.000000000000000000 ) ) ;
#230 = DIRECTION ( 'NONE',  ( 0.000000000000000000, 0.000000000000000000, 1.000000000000000000 ) ) ;
#231 = VECTOR ( 'NONE', #123, 39.37007874015748143 ) ;
#232 = PERSON_AND_ORGANIZATION_ROLE ( 'creator' ) ;
#233 = CC_DESIGN_APPROVAL ( #200, ( #155 ) ) ;
#234 = APPROVAL_PERSON_ORGANIZATION ( #106, #126, #166 ) ;
#235 = EDGE_CURVE ( 'NONE', #206, #73, #95, .T. ) ;
#236 = LINE ( 'NONE', #247, #79 ) ;
#237 = VERTEX_POINT ( 'NONE', #225 ) ;
#238 = AXIS2_PLACEMENT_3D ( 'NONE', #17, #149, #230 ) ;
#239 = APPROVAL_DATE_TIME ( #8, #200 ) ;
#240 = DATE_AND_TIME ( #194, #178 ) ;
#241 = APPLICATION_PROTOCOL_DEFINITION ( 'international standard', 'config_control_design', 1994, #221 ) ;
#242 = APPLICATION_PROTOCOL_DEFINITION ( 'international standard', 'config_control_design', 1994, #87 ) ;
#243 = ORIENTED_EDGE ( 'NONE', *, *, #115, .T. ) ;
#244 = DIRECTION ( 'NONE',  ( 0.000000000000000000, 0.000000000000000000, -1.000000000000000000 ) ) ;
#245 = EDGE_CURVE ( 'NONE', #114, #76, #119, .T. ) ;
#246 = CARTESIAN_POINT ( 'NONE',  ( 0.000000000000000000, 0.06199999999999999956, -0.4685000000000000275 ) ) ;
#247 = CARTESIAN_POINT ( 'NONE',  ( 0.000000000000000000, 0.06199999999999999956, -0.4685000000000000275 ) ) ;
#248 = CALENDAR_DATE ( 2025, 26, 8 ) ;
#249 = FACE_OUTER_BOUND ( 'NONE', #135, .T. ) ;
#250 = FACE_OUTER_BOUND ( 'NONE', #24, .T. ) ;
#251 = AXIS2_PLACEMENT_3D ( 'NONE', #219, #168, #244 ) ;
#252 = PERSON_AND_ORGANIZATION ( #38, #37 ) ;
ENDSEC;
END-ISO-10303-21;
