ISO-10303-21;
HEADER;
FILE_DESCRIPTION (( 'STEP AP203' ),
    '1' );
FILE_NAME ('GSK-66-K.STEP',
    '2025-08-26T17:37:57',
    ( '' ),
    ( '' ),
    'SwSTEP 2.0',
    'SolidWorks 2018',
    '' );
FILE_SCHEMA (( 'CONFIG_CONTROL_DESIGN' ));
ENDSEC;

DATA;
#1 = DIRECTION ( 'NONE',  ( 0.000000000000000000, 1.000000000000000000, 0.000000000000000000 ) ) ;
#2 = PERSON_AND_ORGANIZATION ( #65, #56 ) ;
#3 = DIRECTION ( 'NONE',  ( -0.000000000000000000, -1.000000000000000000, -0.000000000000000000 ) ) ;
#4 = DIRECTION ( 'NONE',  ( -0.000000000000000000, -1.000000000000000000, -0.000000000000000000 ) ) ;
#5 = DIRECTION ( 'NONE',  ( 0.000000000000000000, 0.000000000000000000, -1.000000000000000000 ) ) ;
#6 = ADVANCED_FACE ( 'NONE', ( #49 ), #71, .T. ) ;
#7 = CARTESIAN_POINT ( 'NONE',  ( 3.729049503403690271E-17, -0.03099999999999999978, 0.3044999999999999929 ) ) ;
#8 = LINE ( 'NONE', #190, #84 ) ;
#9 = ORIENTED_EDGE ( 'NONE', *, *, #33, .T. ) ;
#10 = ORIENTED_EDGE ( 'NONE', *, *, #236, .F. ) ;
#11 =( CONVERSION_BASED_UNIT ( 'INCH', #75 ) LENGTH_UNIT ( ) NAMED_UNIT ( #12 ) );
#12 = DIMENSIONAL_EXPONENTS ( 1.000000000000000000, 0.000000000000000000, 0.000000000000000000, 0.000000000000000000, 0.000000000000000000, 0.000000000000000000, 0.000000000000000000 ) ;
#13 = DATE_TIME_ROLE ( 'classification_date' ) ;
#14 = UNCERTAINTY_MEASURE_WITH_UNIT (LENGTH_MEASURE( 1.000000000000000082E-05 ), #11, 'distance_accuracy_value', 'NONE');
#15 = EDGE_LOOP ( 'NONE', ( #194, #176 ) ) ;
#16 = VERTEX_POINT ( 'NONE', #180 ) ;
#17 = AXIS2_PLACEMENT_3D ( 'NONE', #198, #102, #43 ) ;
#18 = PLANE ( 'NONE',  #50 ) ;
#19 = AXIS2_PLACEMENT_3D ( 'NONE', #231, #228, #104 ) ;
#20 = LINE ( 'NONE', #186, #221 ) ;
#21 = ORIENTED_EDGE ( 'NONE', *, *, #182, .T. ) ;
#22 = LOCAL_TIME ( 13, 37, 57.00000000000000000, #246 ) ;
#23 = SECURITY_CLASSIFICATION ( '', '', #156 ) ;
#24 = DIRECTION ( 'NONE',  ( 0.000000000000000000, 0.000000000000000000, 1.000000000000000000 ) ) ;
#25 = CARTESIAN_POINT ( 'NONE',  ( 0.000000000000000000, 0.03099999999999999978, -0.1474999999999999922 ) ) ;
#26 = DIRECTION ( 'NONE',  ( 0.000000000000000000, 0.000000000000000000, 1.000000000000000000 ) ) ;
#27 = CALENDAR_DATE ( 2025, 26, 8 ) ;
#28 = CIRCLE ( 'NONE', #132, 0.1474999999999999922 ) ;
#29 = ORIENTED_EDGE ( 'NONE', *, *, #85, .F. ) ;
#30 = DIRECTION ( 'NONE',  ( 0.000000000000000000, 1.000000000000000000, 0.000000000000000000 ) ) ;
#31 = CC_DESIGN_APPROVAL ( #101, ( #66 ) ) ;
#32 = CARTESIAN_POINT ( 'NONE',  ( 0.000000000000000000, -0.03099999999999999978, -0.1474999999999999922 ) ) ;
#33 = EDGE_CURVE ( 'NONE', #110, #35, #91, .T. ) ;
#34 = APPLICATION_PROTOCOL_DEFINITION ( 'international standard', 'config_control_design', 1994, #36 ) ;
#35 = VERTEX_POINT ( 'NONE', #161 ) ;
#36 = APPLICATION_CONTEXT ( 'configuration controlled 3d designs of mechanical parts and assemblies' ) ;
#37 = ADVANCED_BREP_SHAPE_REPRESENTATION ( 'GSK-66-K', ( #138, #45 ), #239 ) ;
#38 = LOCAL_TIME ( 13, 37, 57.00000000000000000, #89 ) ;
#39 = FACE_BOUND ( 'NONE', #57, .T. ) ;
#40 = DATE_AND_TIME ( #251, #55 ) ;
#41 = AXIS2_PLACEMENT_3D ( 'NONE', #134, #152, #26 ) ;
#42 = APPROVAL_DATE_TIME ( #99, #101 ) ;
#43 = DIRECTION ( 'NONE',  ( 0.000000000000000000, 0.000000000000000000, -1.000000000000000000 ) ) ;
#44 = EDGE_LOOP ( 'NONE', ( #235, #162, #76, #230 ) ) ;
#45 = AXIS2_PLACEMENT_3D ( 'NONE', #48, #94, #210 ) ;
#46 = APPROVAL_DATE_TIME ( #139, #147 ) ;
#47 = APPROVAL_PERSON_ORGANIZATION ( #187, #101, #174 ) ;
#48 = CARTESIAN_POINT ( 'NONE',  ( 0.000000000000000000, 0.000000000000000000, 0.000000000000000000 ) ) ;
#49 = FACE_OUTER_BOUND ( 'NONE', #44, .T. ) ;
#50 = AXIS2_PLACEMENT_3D ( 'NONE', #131, #192, #240 ) ;
#51 = CARTESIAN_POINT ( 'NONE',  ( 0.000000000000000000, -0.03099999999999999978, 0.000000000000000000 ) ) ;
#52 = ADVANCED_FACE ( 'NONE', ( #146 ), #248, .F. ) ;
#53 = CARTESIAN_POINT ( 'NONE',  ( 0.000000000000000000, 0.03099999999999999978, 0.000000000000000000 ) ) ;
#54 = AXIS2_PLACEMENT_3D ( 'NONE', #68, #237, #69 ) ;
#55 = LOCAL_TIME ( 13, 37, 57.00000000000000000, #98 ) ;
#56 = ORGANIZATION ( 'UNSPECIFIED', 'UNSPECIFIED', '' ) ;
#57 = EDGE_LOOP ( 'NONE', ( #105, #135 ) ) ;
#58 = ORIENTED_EDGE ( 'NONE', *, *, #170, .T. ) ;
#59 = AXIS2_PLACEMENT_3D ( 'NONE', #116, #88, #169 ) ;
#60 = PRODUCT ( 'GSK-66-K', 'GSK-66-K', '', ( #226 ) ) ;
#61 = COORDINATED_UNIVERSAL_TIME_OFFSET ( 5, 0, .BEHIND. ) ;
#62 = ORIENTED_EDGE ( 'NONE', *, *, #236, .T. ) ;
#63 = EDGE_CURVE ( 'NONE', #64, #206, #241, .T. ) ;
#64 = VERTEX_POINT ( 'NONE', #249 ) ;
#65 = PERSON ( 'UNSPECIFIED', 'UNSPECIFIED', 'UNSPECIFIED', ('UNSPECIFIED'), ('UNSPECIFIED'), ('UNSPECIFIED') ) ;
#66 = PRODUCT_DEFINITION ( 'UNKNOWN', '', #97, #86 ) ;
#67 = VERTEX_POINT ( 'NONE', #82 ) ;
#68 = CARTESIAN_POINT ( 'NONE',  ( 0.000000000000000000, -0.03099999999999999978, 0.000000000000000000 ) ) ;
#69 = DIRECTION ( 'NONE',  ( 0.000000000000000000, 0.000000000000000000, 1.000000000000000000 ) ) ;
#70 = CARTESIAN_POINT ( 'NONE',  ( 0.000000000000000000, 0.03099999999999999978, -0.3044999999999999929 ) ) ;
#71 = CYLINDRICAL_SURFACE ( 'NONE', #17, 0.3044999999999999929 ) ;
#72 = ORIENTED_EDGE ( 'NONE', *, *, #170, .F. ) ;
#73 = DIRECTION ( 'NONE',  ( -0.000000000000000000, -1.000000000000000000, -0.000000000000000000 ) ) ;
#74 = EDGE_CURVE ( 'NONE', #206, #64, #90, .T. ) ;
#75 = LENGTH_MEASURE_WITH_UNIT ( LENGTH_MEASURE( 0.02539999999999999897 ), #167 );
#76 = ORIENTED_EDGE ( 'NONE', *, *, #250, .T. ) ;
#77 = APPROVAL_PERSON_ORGANIZATION ( #143, #147, #243 ) ;
#78 = CYLINDRICAL_SURFACE ( 'NONE', #215, 0.3044999999999999929 ) ;
#79 = ORIENTED_EDGE ( 'NONE', *, *, #213, .F. ) ;
#80 = EDGE_LOOP ( 'NONE', ( #9, #126, #72, #212 ) ) ;
#81 = VECTOR ( 'NONE', #209, 39.37007874015748143 ) ;
#82 = CARTESIAN_POINT ( 'NONE',  ( 1.806354028742345987E-17, -0.03099999999999999978, 0.1474999999999999922 ) ) ;
#83 = CARTESIAN_POINT ( 'NONE',  ( 0.000000000000000000, 0.03099999999999999978, 0.000000000000000000 ) ) ;
#84 = VECTOR ( 'NONE', #108, 39.37007874015748143 ) ;
#85 = EDGE_CURVE ( 'NONE', #203, #16, #202, .T. ) ;
#86 = DESIGN_CONTEXT ( 'detailed design', #223, 'design' ) ;
#87 = CARTESIAN_POINT ( 'NONE',  ( 0.000000000000000000, -0.03099999999999999978, 0.000000000000000000 ) ) ;
#88 = DIRECTION ( 'NONE',  ( 0.000000000000000000, 1.000000000000000000, 0.000000000000000000 ) ) ;
#89 = COORDINATED_UNIVERSAL_TIME_OFFSET ( 5, 0, .BEHIND. ) ;
#90 = CIRCLE ( 'NONE', #59, 0.3044999999999999929 ) ;
#91 = CIRCLE ( 'NONE', #19, 0.1474999999999999922 ) ;
#92 = CARTESIAN_POINT ( 'NONE',  ( 3.729049503403690271E-17, 0.03099999999999999978, 0.3044999999999999929 ) ) ;
#93 = ADVANCED_FACE ( 'NONE', ( #163, #39 ), #18, .T. ) ;
#94 = DIRECTION ( 'NONE',  ( 0.000000000000000000, 0.000000000000000000, 1.000000000000000000 ) ) ;
#95 = EDGE_LOOP ( 'NONE', ( #238, #21, #122, #117 ) ) ;
#96 = APPROVAL_ROLE ( '' ) ;
#97 = PRODUCT_DEFINITION_FORMATION_WITH_SPECIFIED_SOURCE ( 'ANY', '', #60, .NOT_KNOWN. ) ;
#98 = COORDINATED_UNIVERSAL_TIME_OFFSET ( 5, 0, .BEHIND. ) ;
#99 = DATE_AND_TIME ( #201, #22 ) ;
#100 = CIRCLE ( 'NONE', #54, 0.1474999999999999922 ) ;
#101 = APPROVAL ( #137, 'UNSPECIFIED' ) ;
#102 = DIRECTION ( 'NONE',  ( -0.000000000000000000, -1.000000000000000000, -0.000000000000000000 ) ) ;
#103 = PERSON_AND_ORGANIZATION ( #65, #56 ) ;
#104 = DIRECTION ( 'NONE',  ( 0.000000000000000000, 0.000000000000000000, 1.000000000000000000 ) ) ;
#105 = ORIENTED_EDGE ( 'NONE', *, *, #33, .F. ) ;
#106 = CC_DESIGN_PERSON_AND_ORGANIZATION_ASSIGNMENT ( #103, #224, ( #60 ) ) ;
#107 = DIRECTION ( 'NONE',  ( -0.000000000000000000, -1.000000000000000000, -0.000000000000000000 ) ) ;
#108 = DIRECTION ( 'NONE',  ( -0.000000000000000000, -1.000000000000000000, -0.000000000000000000 ) ) ;
#109 = FACE_BOUND ( 'NONE', #164, .T. ) ;
#110 = VERTEX_POINT ( 'NONE', #151 ) ;
#111 = APPROVAL ( #123, 'UNSPECIFIED' ) ;
#112 = PERSON_AND_ORGANIZATION ( #65, #56 ) ;
#113 = DIRECTION ( 'NONE',  ( 0.000000000000000000, -0.000000000000000000, 1.000000000000000000 ) ) ;
#114 = PLANE ( 'NONE',  #232 ) ;
#115 = DIRECTION ( 'NONE',  ( 0.000000000000000000, 0.000000000000000000, 1.000000000000000000 ) ) ;
#116 = CARTESIAN_POINT ( 'NONE',  ( 0.000000000000000000, 0.03099999999999999978, 0.000000000000000000 ) ) ;
#117 = ORIENTED_EDGE ( 'NONE', *, *, #250, .F. ) ;
#118 = APPROVAL_STATUS ( 'not_yet_approved' ) ;
#119 = AXIS2_PLACEMENT_3D ( 'NONE', #53, #188, #216 ) ;
#120 = PERSON_AND_ORGANIZATION_ROLE ( 'design_supplier' ) ;
#121 = PERSON_AND_ORGANIZATION_ROLE ( 'creator' ) ;
#122 = ORIENTED_EDGE ( 'NONE', *, *, #85, .T. ) ;
#123 = APPROVAL_STATUS ( 'not_yet_approved' ) ;
#124 = PRODUCT_RELATED_PRODUCT_CATEGORY ( 'detail', '', ( #60 ) ) ;
#125 = SHAPE_DEFINITION_REPRESENTATION ( #142, #37 ) ;
#126 = ORIENTED_EDGE ( 'NONE', *, *, #225, .T. ) ;
#127 = DIRECTION ( 'NONE',  ( 0.000000000000000000, 0.000000000000000000, -1.000000000000000000 ) ) ;
#128 = CC_DESIGN_PERSON_AND_ORGANIZATION_ASSIGNMENT ( #112, #193, ( #23 ) ) ;
#129 = ORIENTED_EDGE ( 'NONE', *, *, #225, .F. ) ;
#130 = AXIS2_PLACEMENT_3D ( 'NONE', #207, #1, #24 ) ;
#131 = CARTESIAN_POINT ( 'NONE',  ( 0.000000000000000000, 0.03099999999999999978, 0.000000000000000000 ) ) ;
#132 = AXIS2_PLACEMENT_3D ( 'NONE', #87, #219, #148 ) ;
#133 = PERSON_AND_ORGANIZATION ( #65, #56 ) ;
#134 = CARTESIAN_POINT ( 'NONE',  ( 0.000000000000000000, -0.03099999999999999978, 0.000000000000000000 ) ) ;
#135 = ORIENTED_EDGE ( 'NONE', *, *, #199, .F. ) ;
#136 = DIRECTION ( 'NONE',  ( 0.000000000000000000, 1.000000000000000000, 0.000000000000000000 ) ) ;
#137 = APPROVAL_STATUS ( 'not_yet_approved' ) ;
#138 = MANIFOLD_SOLID_BREP ( 'Boss-Extrude1', #218 ) ;
#139 = DATE_AND_TIME ( #247, #158 ) ;
#140 = PERSON_AND_ORGANIZATION_ROLE ( 'creator' ) ;
#141 = CC_DESIGN_DATE_AND_TIME_ASSIGNMENT ( #40, #13, ( #23 ) ) ;
#142 = PRODUCT_DEFINITION_SHAPE ( 'NONE', 'NONE',  #66 ) ;
#143 = PERSON_AND_ORGANIZATION ( #65, #56 ) ;
#144 = CC_DESIGN_PERSON_AND_ORGANIZATION_ASSIGNMENT ( #145, #121, ( #66 ) ) ;
#145 = PERSON_AND_ORGANIZATION ( #65, #56 ) ;
#146 = FACE_OUTER_BOUND ( 'NONE', #222, .T. ) ;
#147 = APPROVAL ( #118, 'UNSPECIFIED' ) ;
#148 = DIRECTION ( 'NONE',  ( 0.000000000000000000, 0.000000000000000000, 1.000000000000000000 ) ) ;
#149 = ADVANCED_FACE ( 'NONE', ( #234 ), #189, .F. ) ;
#150 = ORIENTED_EDGE ( 'NONE', *, *, #199, .T. ) ;
#151 = CARTESIAN_POINT ( 'NONE',  ( 0.000000000000000000, 0.03099999999999999978, -0.1474999999999999922 ) ) ;
#152 = DIRECTION ( 'NONE',  ( 0.000000000000000000, 1.000000000000000000, 0.000000000000000000 ) ) ;
#153 = APPLICATION_PROTOCOL_DEFINITION ( 'international standard', 'config_control_design', 1994, #223 ) ;
#154 = ORIENTED_EDGE ( 'NONE', *, *, #159, .T. ) ;
#155 = CC_DESIGN_DATE_AND_TIME_ASSIGNMENT ( #183, #242, ( #66 ) ) ;
#156 = SECURITY_CLASSIFICATION_LEVEL ( 'unclassified' ) ;
#157 =( NAMED_UNIT ( * ) SI_UNIT ( $, .STERADIAN. ) SOLID_ANGLE_UNIT ( ) );
#158 = LOCAL_TIME ( 13, 37, 57.00000000000000000, #173 ) ;
#159 = EDGE_CURVE ( 'NONE', #110, #214, #184, .T. ) ;
#160 = CARTESIAN_POINT ( 'NONE',  ( 0.000000000000000000, 0.03099999999999999978, 0.000000000000000000 ) ) ;
#161 = CARTESIAN_POINT ( 'NONE',  ( 1.806354028742345987E-17, 0.03099999999999999978, 0.1474999999999999922 ) ) ;
#162 = ORIENTED_EDGE ( 'NONE', *, *, #74, .F. ) ;
#163 = FACE_OUTER_BOUND ( 'NONE', #15, .T. ) ;
#164 = EDGE_LOOP ( 'NONE', ( #58, #62 ) ) ;
#165 = CC_DESIGN_PERSON_AND_ORGANIZATION_ASSIGNMENT ( #178, #140, ( #97 ) ) ;
#166 = APPROVAL_PERSON_ORGANIZATION ( #133, #111, #96 ) ;
#167 =( LENGTH_UNIT ( ) NAMED_UNIT ( * ) SI_UNIT ( $, .METRE. ) );
#168 = CARTESIAN_POINT ( 'NONE',  ( 0.000000000000000000, 0.03099999999999999978, 0.000000000000000000 ) ) ;
#169 = DIRECTION ( 'NONE',  ( 0.000000000000000000, 0.000000000000000000, 1.000000000000000000 ) ) ;
#170 = EDGE_CURVE ( 'NONE', #214, #67, #100, .T. ) ;
#171 = ADVANCED_FACE ( 'NONE', ( #233 ), #78, .T. ) ;
#172 =( NAMED_UNIT ( * ) PLANE_ANGLE_UNIT ( ) SI_UNIT ( $, .RADIAN. ) );
#173 = COORDINATED_UNIVERSAL_TIME_OFFSET ( 5, 0, .BEHIND. ) ;
#174 = APPROVAL_ROLE ( '' ) ;
#175 = CC_DESIGN_APPROVAL ( #147, ( #23 ) ) ;
#176 = ORIENTED_EDGE ( 'NONE', *, *, #63, .T. ) ;
#177 = AXIS2_PLACEMENT_3D ( 'NONE', #220, #136, #115 ) ;
#178 = PERSON_AND_ORGANIZATION ( #65, #56 ) ;
#179 = DIRECTION ( 'NONE',  ( 0.000000000000000000, 1.000000000000000000, 0.000000000000000000 ) ) ;
#180 = CARTESIAN_POINT ( 'NONE',  ( 0.000000000000000000, -0.03099999999999999978, -0.3044999999999999929 ) ) ;
#181 = LOCAL_TIME ( 13, 37, 57.00000000000000000, #61 ) ;
#182 = EDGE_CURVE ( 'NONE', #64, #203, #217, .T. ) ;
#183 = DATE_AND_TIME ( #27, #38 ) ;
#184 = LINE ( 'NONE', #25, #81 ) ;
#185 = EDGE_LOOP ( 'NONE', ( #79, #29 ) ) ;
#186 = CARTESIAN_POINT ( 'NONE',  ( 0.000000000000000000, 0.03099999999999999978, -0.3044999999999999929 ) ) ;
#187 = PERSON_AND_ORGANIZATION ( #65, #56 ) ;
#188 = DIRECTION ( 'NONE',  ( -0.000000000000000000, -1.000000000000000000, -0.000000000000000000 ) ) ;
#189 = CYLINDRICAL_SURFACE ( 'NONE', #119, 0.1474999999999999922 ) ;
#190 = CARTESIAN_POINT ( 'NONE',  ( 1.806354028742345987E-17, 0.03099999999999999978, 0.1474999999999999922 ) ) ;
#191 = ADVANCED_FACE ( 'NONE', ( #196, #109 ), #114, .F. ) ;
#192 = DIRECTION ( 'NONE',  ( 0.000000000000000000, 1.000000000000000000, 0.000000000000000000 ) ) ;
#193 = PERSON_AND_ORGANIZATION_ROLE ( 'classification_officer' ) ;
#194 = ORIENTED_EDGE ( 'NONE', *, *, #74, .T. ) ;
#195 = AXIS2_PLACEMENT_3D ( 'NONE', #83, #107, #127 ) ;
#196 = FACE_OUTER_BOUND ( 'NONE', #185, .T. ) ;
#197 = DIRECTION ( 'NONE',  ( 0.000000000000000000, 0.000000000000000000, 1.000000000000000000 ) ) ;
#198 = CARTESIAN_POINT ( 'NONE',  ( 0.000000000000000000, 0.03099999999999999978, 0.000000000000000000 ) ) ;
#199 = EDGE_CURVE ( 'NONE', #35, #110, #229, .T. ) ;
#200 = DATE_AND_TIME ( #244, #181 ) ;
#201 = CALENDAR_DATE ( 2025, 26, 8 ) ;
#202 = CIRCLE ( 'NONE', #41, 0.3044999999999999929 ) ;
#203 = VERTEX_POINT ( 'NONE', #7 ) ;
#204 = CC_DESIGN_PERSON_AND_ORGANIZATION_ASSIGNMENT ( #2, #120, ( #97 ) ) ;
#205 = VECTOR ( 'NONE', #4, 39.37007874015748143 ) ;
#206 = VERTEX_POINT ( 'NONE', #70 ) ;
#207 = CARTESIAN_POINT ( 'NONE',  ( 0.000000000000000000, -0.03099999999999999978, 0.000000000000000000 ) ) ;
#208 = AXIS2_PLACEMENT_3D ( 'NONE', #160, #179, #197 ) ;
#209 = DIRECTION ( 'NONE',  ( -0.000000000000000000, -1.000000000000000000, -0.000000000000000000 ) ) ;
#210 = DIRECTION ( 'NONE',  ( 1.000000000000000000, 0.000000000000000000, 0.000000000000000000 ) ) ;
#211 = CC_DESIGN_SECURITY_CLASSIFICATION ( #23, ( #97 ) ) ;
#212 = ORIENTED_EDGE ( 'NONE', *, *, #159, .F. ) ;
#213 = EDGE_CURVE ( 'NONE', #16, #203, #252, .T. ) ;
#214 = VERTEX_POINT ( 'NONE', #32 ) ;
#215 = AXIS2_PLACEMENT_3D ( 'NONE', #168, #73, #5 ) ;
#216 = DIRECTION ( 'NONE',  ( 0.000000000000000000, 0.000000000000000000, -1.000000000000000000 ) ) ;
#217 = LINE ( 'NONE', #92, #205 ) ;
#218 = CLOSED_SHELL ( 'NONE', ( #149, #171, #93, #191, #6, #52 ) ) ;
#219 = DIRECTION ( 'NONE',  ( 0.000000000000000000, 1.000000000000000000, 0.000000000000000000 ) ) ;
#220 = CARTESIAN_POINT ( 'NONE',  ( 0.000000000000000000, 0.03099999999999999978, 0.000000000000000000 ) ) ;
#221 = VECTOR ( 'NONE', #3, 39.37007874015748143 ) ;
#222 = EDGE_LOOP ( 'NONE', ( #129, #150, #154, #10 ) ) ;
#223 = APPLICATION_CONTEXT ( 'configuration controlled 3d designs of mechanical parts and assemblies' ) ;
#224 = PERSON_AND_ORGANIZATION_ROLE ( 'design_owner' ) ;
#225 = EDGE_CURVE ( 'NONE', #35, #67, #8, .T. ) ;
#226 = MECHANICAL_CONTEXT ( 'NONE', #36, 'mechanical' ) ;
#227 = APPROVAL_DATE_TIME ( #200, #111 ) ;
#228 = DIRECTION ( 'NONE',  ( 0.000000000000000000, 1.000000000000000000, 0.000000000000000000 ) ) ;
#229 = CIRCLE ( 'NONE', #177, 0.1474999999999999922 ) ;
#230 = ORIENTED_EDGE ( 'NONE', *, *, #213, .T. ) ;
#231 = CARTESIAN_POINT ( 'NONE',  ( 0.000000000000000000, 0.03099999999999999978, 0.000000000000000000 ) ) ;
#232 = AXIS2_PLACEMENT_3D ( 'NONE', #51, #30, #113 ) ;
#233 = FACE_OUTER_BOUND ( 'NONE', #95, .T. ) ;
#234 = FACE_OUTER_BOUND ( 'NONE', #80, .T. ) ;
#235 = ORIENTED_EDGE ( 'NONE', *, *, #182, .F. ) ;
#236 = EDGE_CURVE ( 'NONE', #67, #214, #28, .T. ) ;
#237 = DIRECTION ( 'NONE',  ( 0.000000000000000000, 1.000000000000000000, 0.000000000000000000 ) ) ;
#238 = ORIENTED_EDGE ( 'NONE', *, *, #63, .F. ) ;
#239 =( GEOMETRIC_REPRESENTATION_CONTEXT ( 3 ) GLOBAL_UNCERTAINTY_ASSIGNED_CONTEXT ( ( #14 ) ) GLOBAL_UNIT_ASSIGNED_CONTEXT ( ( #11, #172, #157 ) ) REPRESENTATION_CONTEXT ( 'NONE', 'WORKASPACE' ) );
#240 = DIRECTION ( 'NONE',  ( 0.000000000000000000, -0.000000000000000000, 1.000000000000000000 ) ) ;
#241 = CIRCLE ( 'NONE', #208, 0.3044999999999999929 ) ;
#242 = DATE_TIME_ROLE ( 'creation_date' ) ;
#243 = APPROVAL_ROLE ( '' ) ;
#244 = CALENDAR_DATE ( 2025, 26, 8 ) ;
#245 = CC_DESIGN_APPROVAL ( #111, ( #97 ) ) ;
#246 = COORDINATED_UNIVERSAL_TIME_OFFSET ( 5, 0, .BEHIND. ) ;
#247 = CALENDAR_DATE ( 2025, 26, 8 ) ;
#248 = CYLINDRICAL_SURFACE ( 'NONE', #195, 0.1474999999999999922 ) ;
#249 = CARTESIAN_POINT ( 'NONE',  ( 3.729049503403690271E-17, 0.03099999999999999978, 0.3044999999999999929 ) ) ;
#250 = EDGE_CURVE ( 'NONE', #206, #16, #20, .T. ) ;
#251 = CALENDAR_DATE ( 2025, 26, 8 ) ;
#252 = CIRCLE ( 'NONE', #130, 0.3044999999999999929 ) ;
ENDSEC;
END-ISO-10303-21;
