ISO-10303-21;
HEADER;
FILE_DESCRIPTION (( 'STEP AP203' ),
    '1' );
FILE_NAME ('GSK-66-T.STEP',
    '2025-08-26T17:48:51',
    ( '' ),
    ( '' ),
    'SwSTEP 2.0',
    'SolidWorks 2018',
    '' );
FILE_SCHEMA (( 'CONFIG_CONTROL_DESIGN' ));
ENDSEC;

DATA;
#1 = PERSON_AND_ORGANIZATION ( #202, #234 ) ;
#2 = CIRCLE ( 'NONE', #163, 0.3044999999999999929 ) ;
#3 = DIRECTION ( 'NONE',  ( 0.000000000000000000, 0.000000000000000000, -1.000000000000000000 ) ) ;
#4 = DIRECTION ( 'NONE',  ( 0.000000000000000000, -0.000000000000000000, 1.000000000000000000 ) ) ;
#5 = VECTOR ( 'NONE', #156, 39.37007874015748143 ) ;
#6 = ORIENTED_EDGE ( 'NONE', *, *, #215, .T. ) ;
#7 = DIRECTION ( 'NONE',  ( 0.000000000000000000, 0.000000000000000000, 1.000000000000000000 ) ) ;
#8 = MANIFOLD_SOLID_BREP ( 'Boss-Extrude1', #88 ) ;
#9 = CARTESIAN_POINT ( 'NONE',  ( 0.000000000000000000, 0.06199999999999999956, -0.1474999999999999922 ) ) ;
#10 = DIRECTION ( 'NONE',  ( 0.000000000000000000, 0.000000000000000000, 1.000000000000000000 ) ) ;
#11 = ORIENTED_EDGE ( 'NONE', *, *, #215, .F. ) ;
#12 = ORIENTED_EDGE ( 'NONE', *, *, #227, .T. ) ;
#13 = SECURITY_CLASSIFICATION_LEVEL ( 'unclassified' ) ;
#14 = CC_DESIGN_PERSON_AND_ORGANIZATION_ASSIGNMENT ( #57, #73, ( #43 ) ) ;
#15 = CALENDAR_DATE ( 2025, 26, 8 ) ;
#16 = EDGE_CURVE ( 'NONE', #250, #196, #145, .T. ) ;
#17 = VECTOR ( 'NONE', #62, 39.37007874015748143 ) ;
#18 = APPROVAL ( #189, 'UNSPECIFIED' ) ;
#19 = LOCAL_TIME ( 13, 48, 51.00000000000000000, #112 ) ;
#20 = CIRCLE ( 'NONE', #60, 0.1474999999999999922 ) ;
#21 = EDGE_LOOP ( 'NONE', ( #176, #183, #248, #235 ) ) ;
#22 = DIRECTION ( 'NONE',  ( 0.000000000000000000, 1.000000000000000000, 0.000000000000000000 ) ) ;
#23 = APPROVAL_DATE_TIME ( #27, #133 ) ;
#24 = CARTESIAN_POINT ( 'NONE',  ( 3.729049503403690271E-17, 0.000000000000000000, 0.3044999999999999929 ) ) ;
#25 = DIRECTION ( 'NONE',  ( 0.000000000000000000, 0.000000000000000000, 1.000000000000000000 ) ) ;
#26 =( NAMED_UNIT ( * ) PLANE_ANGLE_UNIT ( ) SI_UNIT ( $, .RADIAN. ) );
#27 = DATE_AND_TIME ( #33, #47 ) ;
#28 = APPROVAL_ROLE ( '' ) ;
#29 = FACE_OUTER_BOUND ( 'NONE', #219, .T. ) ;
#30 = ORIENTED_EDGE ( 'NONE', *, *, #243, .F. ) ;
#31 = AXIS2_PLACEMENT_3D ( 'NONE', #177, #197, #80 ) ;
#32 = ADVANCED_FACE ( 'NONE', ( #155 ), #94, .F. ) ;
#33 = CALENDAR_DATE ( 2025, 26, 8 ) ;
#34 = VERTEX_POINT ( 'NONE', #82 ) ;
#35 = APPROVAL_STATUS ( 'not_yet_approved' ) ;
#36 = AXIS2_PLACEMENT_3D ( 'NONE', #242, #165, #44 ) ;
#37 = ORIENTED_EDGE ( 'NONE', *, *, #217, .T. ) ;
#38 = PERSON_AND_ORGANIZATION ( #202, #234 ) ;
#39 = PRODUCT_DEFINITION ( 'UNKNOWN', '', #102, #229 ) ;
#40 = CARTESIAN_POINT ( 'NONE',  ( 3.729049503403690271E-17, 0.06199999999999999956, 0.3044999999999999929 ) ) ;
#41 = AXIS2_PLACEMENT_3D ( 'NONE', #99, #120, #4 ) ;
#42 = CARTESIAN_POINT ( 'NONE',  ( 0.000000000000000000, 0.06199999999999999956, -0.3044999999999999929 ) ) ;
#43 = PRODUCT ( 'GSK-66-T', 'GSK-66-T', '', ( #67 ) ) ;
#44 = DIRECTION ( 'NONE',  ( 0.000000000000000000, -0.000000000000000000, 1.000000000000000000 ) ) ;
#45 = EDGE_LOOP ( 'NONE', ( #231, #81, #167, #115 ) ) ;
#46 = DIRECTION ( 'NONE',  ( 0.000000000000000000, 1.000000000000000000, 0.000000000000000000 ) ) ;
#47 = LOCAL_TIME ( 13, 48, 51.00000000000000000, #100 ) ;
#48 = CIRCLE ( 'NONE', #237, 0.3044999999999999929 ) ;
#49 = ORIENTED_EDGE ( 'NONE', *, *, #148, .T. ) ;
#50 = APPLICATION_CONTEXT ( 'configuration controlled 3d designs of mechanical parts and assemblies' ) ;
#51 = AXIS2_PLACEMENT_3D ( 'NONE', #159, #199, #236 ) ;
#52 = PERSON_AND_ORGANIZATION_ROLE ( 'design_supplier' ) ;
#53 = FACE_OUTER_BOUND ( 'NONE', #21, .T. ) ;
#54 = CC_DESIGN_PERSON_AND_ORGANIZATION_ASSIGNMENT ( #218, #228, ( #39 ) ) ;
#55 = CALENDAR_DATE ( 2025, 26, 8 ) ;
#56 = CC_DESIGN_PERSON_AND_ORGANIZATION_ASSIGNMENT ( #232, #209, ( #128 ) ) ;
#57 = PERSON_AND_ORGANIZATION ( #202, #234 ) ;
#58 = CYLINDRICAL_SURFACE ( 'NONE', #204, 0.3044999999999999929 ) ;
#59 = CARTESIAN_POINT ( 'NONE',  ( 0.000000000000000000, 0.06199999999999999956, 0.000000000000000000 ) ) ;
#60 = AXIS2_PLACEMENT_3D ( 'NONE', #161, #46, #10 ) ;
#61 = CARTESIAN_POINT ( 'NONE',  ( 0.000000000000000000, 0.06199999999999999956, 0.000000000000000000 ) ) ;
#62 = DIRECTION ( 'NONE',  ( -0.000000000000000000, -1.000000000000000000, -0.000000000000000000 ) ) ;
#63 = DIRECTION ( 'NONE',  ( 0.000000000000000000, 0.000000000000000000, 1.000000000000000000 ) ) ;
#64 = CARTESIAN_POINT ( 'NONE',  ( 0.000000000000000000, 0.06199999999999999956, -0.3044999999999999929 ) ) ;
#65 = DATE_AND_TIME ( #238, #70 ) ;
#66 = VECTOR ( 'NONE', #108, 39.37007874015748143 ) ;
#67 = MECHANICAL_CONTEXT ( 'NONE', #50, 'mechanical' ) ;
#68 = PRODUCT_RELATED_PRODUCT_CATEGORY ( 'detail', '', ( #43 ) ) ;
#69 = APPLICATION_PROTOCOL_DEFINITION ( 'international standard', 'config_control_design', 1994, #132 ) ;
#70 = LOCAL_TIME ( 13, 48, 51.00000000000000000, #224 ) ;
#71 = ORIENTED_EDGE ( 'NONE', *, *, #185, .T. ) ;
#72 = DATE_TIME_ROLE ( 'classification_date' ) ;
#73 = PERSON_AND_ORGANIZATION_ROLE ( 'design_owner' ) ;
#74 = AXIS2_PLACEMENT_3D ( 'NONE', #162, #7, #223 ) ;
#75 = PERSON_AND_ORGANIZATION ( #202, #234 ) ;
#76 = FACE_BOUND ( 'NONE', #136, .T. ) ;
#77 = CC_DESIGN_DATE_AND_TIME_ASSIGNMENT ( #194, #166, ( #39 ) ) ;
#78 = DIRECTION ( 'NONE',  ( 0.000000000000000000, 1.000000000000000000, 0.000000000000000000 ) ) ;
#79 = DIRECTION ( 'NONE',  ( 0.000000000000000000, 1.000000000000000000, 0.000000000000000000 ) ) ;
#80 = DIRECTION ( 'NONE',  ( 0.000000000000000000, 0.000000000000000000, -1.000000000000000000 ) ) ;
#81 = ORIENTED_EDGE ( 'NONE', *, *, #135, .T. ) ;
#82 = CARTESIAN_POINT ( 'NONE',  ( 3.729049503403690271E-17, 0.06199999999999999956, 0.3044999999999999929 ) ) ;
#83 = CARTESIAN_POINT ( 'NONE',  ( 0.000000000000000000, 0.06199999999999999956, -0.1474999999999999922 ) ) ;
#84 = CARTESIAN_POINT ( 'NONE',  ( 0.000000000000000000, 0.06199999999999999956, 0.000000000000000000 ) ) ;
#85 = DIRECTION ( 'NONE',  ( 0.000000000000000000, 0.000000000000000000, 1.000000000000000000 ) ) ;
#86 = LOCAL_TIME ( 13, 48, 51.00000000000000000, #213 ) ;
#87 = CC_DESIGN_APPROVAL ( #18, ( #39 ) ) ;
#88 = CLOSED_SHELL ( 'NONE', ( #89, #191, #169, #110, #150, #32 ) ) ;
#89 = ADVANCED_FACE ( 'NONE', ( #29 ), #233, .F. ) ;
#90 = APPROVAL_PERSON_ORGANIZATION ( #246, #18, #249 ) ;
#91 = ORIENTED_EDGE ( 'NONE', *, *, #135, .F. ) ;
#92 = AXIS2_PLACEMENT_3D ( 'NONE', #140, #78, #141 ) ;
#93 = UNCERTAINTY_MEASURE_WITH_UNIT (LENGTH_MEASURE( 1.000000000000000082E-05 ), #144, 'distance_accuracy_value', 'NONE');
#94 = CYLINDRICAL_SURFACE ( 'NONE', #118, 0.1474999999999999922 ) ;
#95 = EDGE_LOOP ( 'NONE', ( #30, #49, #168, #178 ) ) ;
#96 = DIMENSIONAL_EXPONENTS ( 1.000000000000000000, 0.000000000000000000, 0.000000000000000000, 0.000000000000000000, 0.000000000000000000, 0.000000000000000000, 0.000000000000000000 ) ;
#97 = LINE ( 'NONE', #64, #66 ) ;
#98 = CC_DESIGN_PERSON_AND_ORGANIZATION_ASSIGNMENT ( #241, #190, ( #102 ) ) ;
#99 = CARTESIAN_POINT ( 'NONE',  ( 0.000000000000000000, 0.000000000000000000, 0.000000000000000000 ) ) ;
#100 = COORDINATED_UNIVERSAL_TIME_OFFSET ( 5, 0, .BEHIND. ) ;
#101 = VERTEX_POINT ( 'NONE', #42 ) ;
#102 = PRODUCT_DEFINITION_FORMATION_WITH_SPECIFIED_SOURCE ( 'ANY', '', #43, .NOT_KNOWN. ) ;
#103 = LINE ( 'NONE', #40, #17 ) ;
#104 = DIRECTION ( 'NONE',  ( 0.000000000000000000, 1.000000000000000000, 0.000000000000000000 ) ) ;
#105 = DIRECTION ( 'NONE',  ( 0.000000000000000000, 1.000000000000000000, 0.000000000000000000 ) ) ;
#106 = EDGE_CURVE ( 'NONE', #252, #216, #157, .T. ) ;
#107 = DATE_AND_TIME ( #15, #86 ) ;
#108 = DIRECTION ( 'NONE',  ( -0.000000000000000000, -1.000000000000000000, -0.000000000000000000 ) ) ;
#109 = APPROVAL_STATUS ( 'not_yet_approved' ) ;
#110 = ADVANCED_FACE ( 'NONE', ( #139, #188 ), #239, .F. ) ;
#111 = CALENDAR_DATE ( 2025, 26, 8 ) ;
#112 = COORDINATED_UNIVERSAL_TIME_OFFSET ( 5, 0, .BEHIND. ) ;
#113 = FACE_OUTER_BOUND ( 'NONE', #95, .T. ) ;
#114 = VERTEX_POINT ( 'NONE', #117 ) ;
#115 = ORIENTED_EDGE ( 'NONE', *, *, #227, .F. ) ;
#116 = VECTOR ( 'NONE', #240, 39.37007874015748143 ) ;
#117 = CARTESIAN_POINT ( 'NONE',  ( 1.806354028742345987E-17, 0.000000000000000000, 0.1474999999999999922 ) ) ;
#118 = AXIS2_PLACEMENT_3D ( 'NONE', #61, #198, #3 ) ;
#119 = ADVANCED_BREP_SHAPE_REPRESENTATION ( 'GSK-66-T', ( #8, #74 ), #251 ) ;
#120 = DIRECTION ( 'NONE',  ( 0.000000000000000000, 1.000000000000000000, 0.000000000000000000 ) ) ;
#121 = CARTESIAN_POINT ( 'NONE',  ( 0.000000000000000000, 0.000000000000000000, -0.1474999999999999922 ) ) ;
#122 = CARTESIAN_POINT ( 'NONE',  ( 1.806354028742345987E-17, 0.06199999999999999956, 0.1474999999999999922 ) ) ;
#123 = AXIS2_PLACEMENT_3D ( 'NONE', #206, #182, #85 ) ;
#124 = SHAPE_DEFINITION_REPRESENTATION ( #173, #119 ) ;
#125 = CARTESIAN_POINT ( 'NONE',  ( 0.000000000000000000, 0.06199999999999999956, 0.000000000000000000 ) ) ;
#126 = ORIENTED_EDGE ( 'NONE', *, *, #160, .F. ) ;
#127 = DIRECTION ( 'NONE',  ( 0.000000000000000000, 0.000000000000000000, 1.000000000000000000 ) ) ;
#128 = SECURITY_CLASSIFICATION ( '', '', #13 ) ;
#129 =( LENGTH_UNIT ( ) NAMED_UNIT ( * ) SI_UNIT ( $, .METRE. ) );
#130 = FACE_OUTER_BOUND ( 'NONE', #146, .T. ) ;
#131 = APPROVAL_DATE_TIME ( #175, #134 ) ;
#132 = APPLICATION_CONTEXT ( 'configuration controlled 3d designs of mechanical parts and assemblies' ) ;
#133 = APPROVAL ( #109, 'UNSPECIFIED' ) ;
#134 = APPROVAL ( #35, 'UNSPECIFIED' ) ;
#135 = EDGE_CURVE ( 'NONE', #225, #250, #210, .T. ) ;
#136 = EDGE_LOOP ( 'NONE', ( #11, #91 ) ) ;
#137 = AXIS2_PLACEMENT_3D ( 'NONE', #184, #245, #63 ) ;
#138 = LENGTH_MEASURE_WITH_UNIT ( LENGTH_MEASURE( 0.02539999999999999897 ), #129 );
#139 = FACE_OUTER_BOUND ( 'NONE', #164, .T. ) ;
#140 = CARTESIAN_POINT ( 'NONE',  ( 0.000000000000000000, 0.000000000000000000, 0.000000000000000000 ) ) ;
#141 = DIRECTION ( 'NONE',  ( 0.000000000000000000, 0.000000000000000000, 1.000000000000000000 ) ) ;
#142 = DIRECTION ( 'NONE',  ( 0.000000000000000000, 0.000000000000000000, 1.000000000000000000 ) ) ;
#143 = CC_DESIGN_APPROVAL ( #133, ( #102 ) ) ;
#144 =( CONVERSION_BASED_UNIT ( 'INCH', #138 ) LENGTH_UNIT ( ) NAMED_UNIT ( #96 ) );
#145 = LINE ( 'NONE', #83, #5 ) ;
#146 = EDGE_LOOP ( 'NONE', ( #37, #211 ) ) ;
#147 = CC_DESIGN_PERSON_AND_ORGANIZATION_ASSIGNMENT ( #75, #52, ( #102 ) ) ;
#148 = EDGE_CURVE ( 'NONE', #34, #252, #103, .T. ) ;
#149 = CYLINDRICAL_SURFACE ( 'NONE', #51, 0.3044999999999999929 ) ;
#150 = ADVANCED_FACE ( 'NONE', ( #53 ), #149, .T. ) ;
#151 = EDGE_LOOP ( 'NONE', ( #207, #12 ) ) ;
#152 = AXIS2_PLACEMENT_3D ( 'NONE', #203, #105, #127 ) ;
#153 = CIRCLE ( 'NONE', #123, 0.3044999999999999929 ) ;
#154 = LOCAL_TIME ( 13, 48, 51.00000000000000000, #230 ) ;
#155 = FACE_OUTER_BOUND ( 'NONE', #45, .T. ) ;
#156 = DIRECTION ( 'NONE',  ( -0.000000000000000000, -1.000000000000000000, -0.000000000000000000 ) ) ;
#157 = CIRCLE ( 'NONE', #92, 0.3044999999999999929 ) ;
#158 = CC_DESIGN_DATE_AND_TIME_ASSIGNMENT ( #107, #72, ( #128 ) ) ;
#159 = CARTESIAN_POINT ( 'NONE',  ( 0.000000000000000000, 0.06199999999999999956, 0.000000000000000000 ) ) ;
#160 = EDGE_CURVE ( 'NONE', #216, #252, #153, .T. ) ;
#161 = CARTESIAN_POINT ( 'NONE',  ( 0.000000000000000000, 0.000000000000000000, 0.000000000000000000 ) ) ;
#162 = CARTESIAN_POINT ( 'NONE',  ( 0.000000000000000000, 0.000000000000000000, 0.000000000000000000 ) ) ;
#163 = AXIS2_PLACEMENT_3D ( 'NONE', #84, #104, #142 ) ;
#164 = EDGE_LOOP ( 'NONE', ( #126, #220 ) ) ;
#165 = DIRECTION ( 'NONE',  ( 0.000000000000000000, 1.000000000000000000, 0.000000000000000000 ) ) ;
#166 = DATE_TIME_ROLE ( 'creation_date' ) ;
#167 = ORIENTED_EDGE ( 'NONE', *, *, #16, .T. ) ;
#168 = ORIENTED_EDGE ( 'NONE', *, *, #106, .T. ) ;
#169 = ADVANCED_FACE ( 'NONE', ( #130, #76 ), #244, .T. ) ;
#170 = CC_DESIGN_APPROVAL ( #134, ( #128 ) ) ;
#171 = LINE ( 'NONE', #201, #116 ) ;
#172 = EDGE_CURVE ( 'NONE', #196, #114, #20, .T. ) ;
#173 = PRODUCT_DEFINITION_SHAPE ( 'NONE', 'NONE',  #39 ) ;
#174 = AXIS2_PLACEMENT_3D ( 'NONE', #59, #79, #179 ) ;
#175 = DATE_AND_TIME ( #111, #154 ) ;
#176 = ORIENTED_EDGE ( 'NONE', *, *, #148, .F. ) ;
#177 = CARTESIAN_POINT ( 'NONE',  ( 0.000000000000000000, 0.06199999999999999956, 0.000000000000000000 ) ) ;
#178 = ORIENTED_EDGE ( 'NONE', *, *, #193, .F. ) ;
#179 = DIRECTION ( 'NONE',  ( 0.000000000000000000, 0.000000000000000000, 1.000000000000000000 ) ) ;
#180 = DIRECTION ( 'NONE',  ( 0.000000000000000000, 0.000000000000000000, -1.000000000000000000 ) ) ;
#181 = APPROVAL_PERSON_ORGANIZATION ( #38, #133, #212 ) ;
#182 = DIRECTION ( 'NONE',  ( 0.000000000000000000, 1.000000000000000000, 0.000000000000000000 ) ) ;
#183 = ORIENTED_EDGE ( 'NONE', *, *, #217, .F. ) ;
#184 = CARTESIAN_POINT ( 'NONE',  ( 0.000000000000000000, 0.06199999999999999956, 0.000000000000000000 ) ) ;
#185 = EDGE_CURVE ( 'NONE', #225, #114, #171, .T. ) ;
#186 = APPLICATION_PROTOCOL_DEFINITION ( 'international standard', 'config_control_design', 1994, #50 ) ;
#187 = APPROVAL_PERSON_ORGANIZATION ( #1, #134, #28 ) ;
#188 = FACE_BOUND ( 'NONE', #151, .T. ) ;
#189 = APPROVAL_STATUS ( 'not_yet_approved' ) ;
#190 = PERSON_AND_ORGANIZATION_ROLE ( 'creator' ) ;
#191 = ADVANCED_FACE ( 'NONE', ( #113 ), #58, .T. ) ;
#192 = APPROVAL_DATE_TIME ( #65, #18 ) ;
#193 = EDGE_CURVE ( 'NONE', #101, #216, #97, .T. ) ;
#194 = DATE_AND_TIME ( #55, #19 ) ;
#195 = CIRCLE ( 'NONE', #152, 0.1474999999999999922 ) ;
#196 = VERTEX_POINT ( 'NONE', #121 ) ;
#197 = DIRECTION ( 'NONE',  ( -0.000000000000000000, -1.000000000000000000, -0.000000000000000000 ) ) ;
#198 = DIRECTION ( 'NONE',  ( -0.000000000000000000, -1.000000000000000000, -0.000000000000000000 ) ) ;
#199 = DIRECTION ( 'NONE',  ( -0.000000000000000000, -1.000000000000000000, -0.000000000000000000 ) ) ;
#200 = ORIENTED_EDGE ( 'NONE', *, *, #172, .F. ) ;
#201 = CARTESIAN_POINT ( 'NONE',  ( 1.806354028742345987E-17, 0.06199999999999999956, 0.1474999999999999922 ) ) ;
#202 = PERSON ( 'UNSPECIFIED', 'UNSPECIFIED', 'UNSPECIFIED', ('UNSPECIFIED'), ('UNSPECIFIED'), ('UNSPECIFIED') ) ;
#203 = CARTESIAN_POINT ( 'NONE',  ( 0.000000000000000000, 0.000000000000000000, 0.000000000000000000 ) ) ;
#204 = AXIS2_PLACEMENT_3D ( 'NONE', #125, #226, #180 ) ;
#205 = CARTESIAN_POINT ( 'NONE',  ( 0.000000000000000000, 0.06199999999999999956, 0.000000000000000000 ) ) ;
#206 = CARTESIAN_POINT ( 'NONE',  ( 0.000000000000000000, 0.000000000000000000, 0.000000000000000000 ) ) ;
#207 = ORIENTED_EDGE ( 'NONE', *, *, #172, .T. ) ;
#208 = CC_DESIGN_SECURITY_CLASSIFICATION ( #128, ( #102 ) ) ;
#209 = PERSON_AND_ORGANIZATION_ROLE ( 'classification_officer' ) ;
#210 = CIRCLE ( 'NONE', #174, 0.1474999999999999922 ) ;
#211 = ORIENTED_EDGE ( 'NONE', *, *, #243, .T. ) ;
#212 = APPROVAL_ROLE ( '' ) ;
#213 = COORDINATED_UNIVERSAL_TIME_OFFSET ( 5, 0, .BEHIND. ) ;
#214 = CIRCLE ( 'NONE', #137, 0.1474999999999999922 ) ;
#215 = EDGE_CURVE ( 'NONE', #250, #225, #214, .T. ) ;
#216 = VERTEX_POINT ( 'NONE', #222 ) ;
#217 = EDGE_CURVE ( 'NONE', #101, #34, #48, .T. ) ;
#218 = PERSON_AND_ORGANIZATION ( #202, #234 ) ;
#219 = EDGE_LOOP ( 'NONE', ( #6, #71, #200, #247 ) ) ;
#220 = ORIENTED_EDGE ( 'NONE', *, *, #106, .F. ) ;
#221 =( NAMED_UNIT ( * ) SI_UNIT ( $, .STERADIAN. ) SOLID_ANGLE_UNIT ( ) );
#222 = CARTESIAN_POINT ( 'NONE',  ( 0.000000000000000000, 0.000000000000000000, -0.3044999999999999929 ) ) ;
#223 = DIRECTION ( 'NONE',  ( 1.000000000000000000, 0.000000000000000000, 0.000000000000000000 ) ) ;
#224 = COORDINATED_UNIVERSAL_TIME_OFFSET ( 5, 0, .BEHIND. ) ;
#225 = VERTEX_POINT ( 'NONE', #122 ) ;
#226 = DIRECTION ( 'NONE',  ( -0.000000000000000000, -1.000000000000000000, -0.000000000000000000 ) ) ;
#227 = EDGE_CURVE ( 'NONE', #114, #196, #195, .T. ) ;
#228 = PERSON_AND_ORGANIZATION_ROLE ( 'creator' ) ;
#229 = DESIGN_CONTEXT ( 'detailed design', #132, 'design' ) ;
#230 = COORDINATED_UNIVERSAL_TIME_OFFSET ( 5, 0, .BEHIND. ) ;
#231 = ORIENTED_EDGE ( 'NONE', *, *, #185, .F. ) ;
#232 = PERSON_AND_ORGANIZATION ( #202, #234 ) ;
#233 = CYLINDRICAL_SURFACE ( 'NONE', #31, 0.1474999999999999922 ) ;
#234 = ORGANIZATION ( 'UNSPECIFIED', 'UNSPECIFIED', '' ) ;
#235 = ORIENTED_EDGE ( 'NONE', *, *, #160, .T. ) ;
#236 = DIRECTION ( 'NONE',  ( 0.000000000000000000, 0.000000000000000000, -1.000000000000000000 ) ) ;
#237 = AXIS2_PLACEMENT_3D ( 'NONE', #205, #22, #25 ) ;
#238 = CALENDAR_DATE ( 2025, 26, 8 ) ;
#239 = PLANE ( 'NONE',  #41 ) ;
#240 = DIRECTION ( 'NONE',  ( -0.000000000000000000, -1.000000000000000000, -0.000000000000000000 ) ) ;
#241 = PERSON_AND_ORGANIZATION ( #202, #234 ) ;
#242 = CARTESIAN_POINT ( 'NONE',  ( 0.000000000000000000, 0.06199999999999999956, 0.000000000000000000 ) ) ;
#243 = EDGE_CURVE ( 'NONE', #34, #101, #2, .T. ) ;
#244 = PLANE ( 'NONE',  #36 ) ;
#245 = DIRECTION ( 'NONE',  ( 0.000000000000000000, 1.000000000000000000, 0.000000000000000000 ) ) ;
#246 = PERSON_AND_ORGANIZATION ( #202, #234 ) ;
#247 = ORIENTED_EDGE ( 'NONE', *, *, #16, .F. ) ;
#248 = ORIENTED_EDGE ( 'NONE', *, *, #193, .T. ) ;
#249 = APPROVAL_ROLE ( '' ) ;
#250 = VERTEX_POINT ( 'NONE', #9 ) ;
#251 =( GEOMETRIC_REPRESENTATION_CONTEXT ( 3 ) GLOBAL_UNCERTAINTY_ASSIGNED_CONTEXT ( ( #93 ) ) GLOBAL_UNIT_ASSIGNED_CONTEXT ( ( #144, #26, #221 ) ) REPRESENTATION_CONTEXT ( 'NONE', 'WORKASPACE' ) );
#252 = VERTEX_POINT ( 'NONE', #24 ) ;
ENDSEC;
END-ISO-10303-21;
