ISO-10303-21;
HEADER;
FILE_DESCRIPTION (( 'STEP AP203' ),
    '1' );
FILE_NAME ('GSK-705-K.STEP',
    '2025-08-26T17:57:55',
    ( '' ),
    ( '' ),
    'SwSTEP 2.0',
    'SolidWorks 2018',
    '' );
FILE_SCHEMA (( 'CONFIG_CONTROL_DESIGN' ));
ENDSEC;

DATA;
#1 = CC_DESIGN_DATE_AND_TIME_ASSIGNMENT ( #218, #210, ( #83 ) ) ;
#2 = CIRCLE ( 'NONE', #234, 0.4684999999999999165 ) ;
#3 = ORIENTED_EDGE ( 'NONE', *, *, #153, .F. ) ;
#4 = SECURITY_CLASSIFICATION ( '', '', #77 ) ;
#5 = COORDINATED_UNIVERSAL_TIME_OFFSET ( 5, 0, .BEHIND. ) ;
#6 = AXIS2_PLACEMENT_3D ( 'NONE', #107, #72, #33 ) ;
#7 = PERSON_AND_ORGANIZATION ( #223, #221 ) ;
#8 = ORIENTED_EDGE ( 'NONE', *, *, #182, .F. ) ;
#9 = CARTESIAN_POINT ( 'NONE',  ( 0.000000000000000000, 0.06199999999999999956, 0.000000000000000000 ) ) ;
#10 = DIRECTION ( 'NONE',  ( -0.000000000000000000, -1.000000000000000000, -0.000000000000000000 ) ) ;
#11 = CARTESIAN_POINT ( 'NONE',  ( 3.395333250636036336E-17, 0.06199999999999999956, 0.2772499999999999409 ) ) ;
#12 = PERSON_AND_ORGANIZATION ( #223, #221 ) ;
#13 = CIRCLE ( 'NONE', #243, 0.2772499999999999409 ) ;
#14 = VERTEX_POINT ( 'NONE', #143 ) ;
#15 = APPROVAL_ROLE ( '' ) ;
#16 =( NAMED_UNIT ( * ) PLANE_ANGLE_UNIT ( ) SI_UNIT ( $, .RADIAN. ) );
#17 = MECHANICAL_CONTEXT ( 'NONE', #170, 'mechanical' ) ;
#18 =( NAMED_UNIT ( * ) SI_UNIT ( $, .STERADIAN. ) SOLID_ANGLE_UNIT ( ) );
#19 = CYLINDRICAL_SURFACE ( 'NONE', #44, 0.2772499999999999409 ) ;
#20 = DIRECTION ( 'NONE',  ( 0.000000000000000000, 0.000000000000000000, 1.000000000000000000 ) ) ;
#21 =( CONVERSION_BASED_UNIT ( 'INCH', #144 ) LENGTH_UNIT ( ) NAMED_UNIT ( #87 ) );
#22 = CARTESIAN_POINT ( 'NONE',  ( 0.000000000000000000, 0.000000000000000000, -0.4684999999999999165 ) ) ;
#23 = CIRCLE ( 'NONE', #94, 0.4684999999999999165 ) ;
#24 = EDGE_LOOP ( 'NONE', ( #86, #102 ) ) ;
#25 = LINE ( 'NONE', #244, #151 ) ;
#26 = LINE ( 'NONE', #124, #96 ) ;
#27 = ORIENTED_EDGE ( 'NONE', *, *, #182, .T. ) ;
#28 = DIRECTION ( 'NONE',  ( 0.000000000000000000, 0.000000000000000000, -1.000000000000000000 ) ) ;
#29 = DIRECTION ( 'NONE',  ( -0.000000000000000000, -1.000000000000000000, -0.000000000000000000 ) ) ;
#30 = ADVANCED_FACE ( 'NONE', ( #155 ), #82, .T. ) ;
#31 = APPROVAL_PERSON_ORGANIZATION ( #90, #240, #228 ) ;
#32 = ORIENTED_EDGE ( 'NONE', *, *, #130, .F. ) ;
#33 = DIRECTION ( 'NONE',  ( 0.000000000000000000, -0.000000000000000000, 1.000000000000000000 ) ) ;
#34 = DIRECTION ( 'NONE',  ( -0.000000000000000000, -1.000000000000000000, -0.000000000000000000 ) ) ;
#35 = AXIS2_PLACEMENT_3D ( 'NONE', #246, #75, #227 ) ;
#36 = DIRECTION ( 'NONE',  ( 0.000000000000000000, 0.000000000000000000, 1.000000000000000000 ) ) ;
#37 = PERSON_AND_ORGANIZATION ( #223, #221 ) ;
#38 = ORIENTED_EDGE ( 'NONE', *, *, #204, .F. ) ;
#39 = LOCAL_TIME ( 13, 57, 55.00000000000000000, #136 ) ;
#40 = EDGE_LOOP ( 'NONE', ( #178, #48, #139, #188 ) ) ;
#41 = DIRECTION ( 'NONE',  ( 0.000000000000000000, 0.000000000000000000, 1.000000000000000000 ) ) ;
#42 = DIRECTION ( 'NONE',  ( -0.000000000000000000, -1.000000000000000000, -0.000000000000000000 ) ) ;
#43 = CARTESIAN_POINT ( 'NONE',  ( 0.000000000000000000, 0.000000000000000000, 0.000000000000000000 ) ) ;
#44 = AXIS2_PLACEMENT_3D ( 'NONE', #111, #34, #239 ) ;
#45 = CC_DESIGN_PERSON_AND_ORGANIZATION_ASSIGNMENT ( #172, #117, ( #120 ) ) ;
#46 = AXIS2_PLACEMENT_3D ( 'NONE', #193, #69, #41 ) ;
#47 = CIRCLE ( 'NONE', #134, 0.2772499999999999409 ) ;
#48 = ORIENTED_EDGE ( 'NONE', *, *, #166, .T. ) ;
#49 = DIRECTION ( 'NONE',  ( 0.000000000000000000, 0.000000000000000000, 1.000000000000000000 ) ) ;
#50 = CARTESIAN_POINT ( 'NONE',  ( 5.737470254005348781E-17, 0.000000000000000000, 0.4684999999999999165 ) ) ;
#51 = FACE_BOUND ( 'NONE', #24, .T. ) ;
#52 = CARTESIAN_POINT ( 'NONE',  ( 5.737470254005348781E-17, 0.06199999999999999956, 0.4684999999999999165 ) ) ;
#53 = DIRECTION ( 'NONE',  ( 0.000000000000000000, 0.000000000000000000, 1.000000000000000000 ) ) ;
#54 = EDGE_LOOP ( 'NONE', ( #226, #32, #98, #99 ) ) ;
#55 = DIRECTION ( 'NONE',  ( 0.000000000000000000, 1.000000000000000000, 0.000000000000000000 ) ) ;
#56 =( LENGTH_UNIT ( ) NAMED_UNIT ( * ) SI_UNIT ( $, .METRE. ) );
#57 = CC_DESIGN_SECURITY_CLASSIFICATION ( #4, ( #120 ) ) ;
#58 = CALENDAR_DATE ( 2025, 26, 8 ) ;
#59 = PLANE ( 'NONE',  #157 ) ;
#60 = APPROVAL_PERSON_ORGANIZATION ( #37, #176, #15 ) ;
#61 = DIRECTION ( 'NONE',  ( 0.000000000000000000, -0.000000000000000000, 1.000000000000000000 ) ) ;
#62 = CALENDAR_DATE ( 2025, 26, 8 ) ;
#63 = EDGE_LOOP ( 'NONE', ( #93, #248 ) ) ;
#64 = DATE_AND_TIME ( #167, #216 ) ;
#65 = FACE_OUTER_BOUND ( 'NONE', #113, .T. ) ;
#66 = UNCERTAINTY_MEASURE_WITH_UNIT (LENGTH_MEASURE( 1.000000000000000082E-05 ), #21, 'distance_accuracy_value', 'NONE');
#67 = AXIS2_PLACEMENT_3D ( 'NONE', #187, #145, #36 ) ;
#68 = FACE_OUTER_BOUND ( 'NONE', #40, .T. ) ;
#69 = DIRECTION ( 'NONE',  ( 0.000000000000000000, 1.000000000000000000, 0.000000000000000000 ) ) ;
#70 = CC_DESIGN_PERSON_AND_ORGANIZATION_ASSIGNMENT ( #252, #208, ( #4 ) ) ;
#71 = CC_DESIGN_PERSON_AND_ORGANIZATION_ASSIGNMENT ( #199, #79, ( #205 ) ) ;
#72 = DIRECTION ( 'NONE',  ( 0.000000000000000000, 1.000000000000000000, 0.000000000000000000 ) ) ;
#73 = ORIENTED_EDGE ( 'NONE', *, *, #130, .T. ) ;
#74 = APPLICATION_CONTEXT ( 'configuration controlled 3d designs of mechanical parts and assemblies' ) ;
#75 = DIRECTION ( 'NONE',  ( 0.000000000000000000, 0.000000000000000000, 1.000000000000000000 ) ) ;
#76 = CIRCLE ( 'NONE', #97, 0.4684999999999999165 ) ;
#77 = SECURITY_CLASSIFICATION_LEVEL ( 'unclassified' ) ;
#78 = DIRECTION ( 'NONE',  ( -0.000000000000000000, -1.000000000000000000, -0.000000000000000000 ) ) ;
#79 = PERSON_AND_ORGANIZATION_ROLE ( 'design_owner' ) ;
#80 = FACE_OUTER_BOUND ( 'NONE', #54, .T. ) ;
#81 = VERTEX_POINT ( 'NONE', #11 ) ;
#82 = CYLINDRICAL_SURFACE ( 'NONE', #251, 0.4684999999999999165 ) ;
#83 = PRODUCT_DEFINITION ( 'UNKNOWN', '', #120, #196 ) ;
#84 = AXIS2_PLACEMENT_3D ( 'NONE', #249, #169, #115 ) ;
#85 = VERTEX_POINT ( 'NONE', #50 ) ;
#86 = ORIENTED_EDGE ( 'NONE', *, *, #204, .T. ) ;
#87 = DIMENSIONAL_EXPONENTS ( 1.000000000000000000, 0.000000000000000000, 0.000000000000000000, 0.000000000000000000, 0.000000000000000000, 0.000000000000000000, 0.000000000000000000 ) ;
#88 = ADVANCED_FACE ( 'NONE', ( #233 ), #19, .F. ) ;
#89 = PRODUCT_DEFINITION_SHAPE ( 'NONE', 'NONE',  #83 ) ;
#90 = PERSON_AND_ORGANIZATION ( #223, #221 ) ;
#91 = DIRECTION ( 'NONE',  ( 0.000000000000000000, 0.000000000000000000, -1.000000000000000000 ) ) ;
#92 = CARTESIAN_POINT ( 'NONE',  ( 0.000000000000000000, 0.06199999999999999956, 0.000000000000000000 ) ) ;
#93 = ORIENTED_EDGE ( 'NONE', *, *, #103, .F. ) ;
#94 = AXIS2_PLACEMENT_3D ( 'NONE', #201, #237, #49 ) ;
#95 = CC_DESIGN_PERSON_AND_ORGANIZATION_ASSIGNMENT ( #12, #173, ( #83 ) ) ;
#96 = VECTOR ( 'NONE', #10, 39.37007874015748143 ) ;
#97 = AXIS2_PLACEMENT_3D ( 'NONE', #212, #133, #229 ) ;
#98 = ORIENTED_EDGE ( 'NONE', *, *, #156, .T. ) ;
#99 = ORIENTED_EDGE ( 'NONE', *, *, #219, .T. ) ;
#100 = LOCAL_TIME ( 13, 57, 55.00000000000000000, #197 ) ;
#101 = LOCAL_TIME ( 13, 57, 55.00000000000000000, #203 ) ;
#102 = ORIENTED_EDGE ( 'NONE', *, *, #215, .T. ) ;
#103 = EDGE_CURVE ( 'NONE', #14, #81, #207, .T. ) ;
#104 = DATE_AND_TIME ( #154, #101 ) ;
#105 = VERTEX_POINT ( 'NONE', #52 ) ;
#106 = ADVANCED_FACE ( 'NONE', ( #186, #127 ), #142, .T. ) ;
#107 = CARTESIAN_POINT ( 'NONE',  ( 0.000000000000000000, 0.06199999999999999956, 0.000000000000000000 ) ) ;
#108 = CC_DESIGN_APPROVAL ( #240, ( #4 ) ) ;
#109 = CARTESIAN_POINT ( 'NONE',  ( 0.000000000000000000, 0.06199999999999999956, 0.000000000000000000 ) ) ;
#110 =( GEOMETRIC_REPRESENTATION_CONTEXT ( 3 ) GLOBAL_UNCERTAINTY_ASSIGNED_CONTEXT ( ( #66 ) ) GLOBAL_UNIT_ASSIGNED_CONTEXT ( ( #21, #16, #18 ) ) REPRESENTATION_CONTEXT ( 'NONE', 'WORKASPACE' ) );
#111 = CARTESIAN_POINT ( 'NONE',  ( 0.000000000000000000, 0.06199999999999999956, 0.000000000000000000 ) ) ;
#112 = COORDINATED_UNIVERSAL_TIME_OFFSET ( 5, 0, .BEHIND. ) ;
#113 = EDGE_LOOP ( 'NONE', ( #168, #3 ) ) ;
#114 = APPROVAL_STATUS ( 'not_yet_approved' ) ;
#115 = DIRECTION ( 'NONE',  ( 0.000000000000000000, 0.000000000000000000, 1.000000000000000000 ) ) ;
#116 = CARTESIAN_POINT ( 'NONE',  ( 0.000000000000000000, 0.000000000000000000, 0.000000000000000000 ) ) ;
#117 = PERSON_AND_ORGANIZATION_ROLE ( 'creator' ) ;
#118 = ORIENTED_EDGE ( 'NONE', *, *, #137, .F. ) ;
#119 = PERSON_AND_ORGANIZATION ( #223, #221 ) ;
#120 = PRODUCT_DEFINITION_FORMATION_WITH_SPECIFIED_SOURCE ( 'ANY', '', #205, .NOT_KNOWN. ) ;
#121 = AXIS2_PLACEMENT_3D ( 'NONE', #9, #29, #28 ) ;
#122 = SHAPE_DEFINITION_REPRESENTATION ( #89, #247 ) ;
#123 = ORIENTED_EDGE ( 'NONE', *, *, #153, .T. ) ;
#124 = CARTESIAN_POINT ( 'NONE',  ( 0.000000000000000000, 0.06199999999999999956, -0.4684999999999999165 ) ) ;
#125 = DIRECTION ( 'NONE',  ( 0.000000000000000000, 1.000000000000000000, 0.000000000000000000 ) ) ;
#126 = DATE_AND_TIME ( #58, #39 ) ;
#127 = FACE_BOUND ( 'NONE', #63, .T. ) ;
#128 = CARTESIAN_POINT ( 'NONE',  ( 0.000000000000000000, 0.06199999999999999956, 0.000000000000000000 ) ) ;
#129 = CARTESIAN_POINT ( 'NONE',  ( 0.000000000000000000, 0.06199999999999999956, 0.000000000000000000 ) ) ;
#130 = EDGE_CURVE ( 'NONE', #198, #105, #2, .T. ) ;
#131 = LINE ( 'NONE', #147, #214 ) ;
#132 = ORIENTED_EDGE ( 'NONE', *, *, #103, .T. ) ;
#133 = DIRECTION ( 'NONE',  ( 0.000000000000000000, 1.000000000000000000, 0.000000000000000000 ) ) ;
#134 = AXIS2_PLACEMENT_3D ( 'NONE', #129, #165, #20 ) ;
#135 = VERTEX_POINT ( 'NONE', #162 ) ;
#136 = COORDINATED_UNIVERSAL_TIME_OFFSET ( 5, 0, .BEHIND. ) ;
#137 = EDGE_CURVE ( 'NONE', #14, #135, #25, .T. ) ;
#138 = CIRCLE ( 'NONE', #84, 0.4684999999999999165 ) ;
#139 = ORIENTED_EDGE ( 'NONE', *, *, #137, .T. ) ;
#140 = CARTESIAN_POINT ( 'NONE',  ( 3.395333250636036336E-17, 0.000000000000000000, 0.2772499999999999409 ) ) ;
#141 = VERTEX_POINT ( 'NONE', #140 ) ;
#142 = PLANE ( 'NONE',  #6 ) ;
#143 = CARTESIAN_POINT ( 'NONE',  ( 0.000000000000000000, 0.06199999999999999956, -0.2772499999999999409 ) ) ;
#144 = LENGTH_MEASURE_WITH_UNIT ( LENGTH_MEASURE( 0.02539999999999999897 ), #56 );
#145 = DIRECTION ( 'NONE',  ( 0.000000000000000000, 1.000000000000000000, 0.000000000000000000 ) ) ;
#146 = AXIS2_PLACEMENT_3D ( 'NONE', #92, #189, #171 ) ;
#147 = CARTESIAN_POINT ( 'NONE',  ( 5.737470254005348781E-17, 0.06199999999999999956, 0.4684999999999999165 ) ) ;
#148 = CC_DESIGN_APPROVAL ( #176, ( #83 ) ) ;
#149 = CARTESIAN_POINT ( 'NONE',  ( 0.000000000000000000, 0.06199999999999999956, -0.4684999999999999165 ) ) ;
#150 = APPLICATION_PROTOCOL_DEFINITION ( 'international standard', 'config_control_design', 1994, #74 ) ;
#151 = VECTOR ( 'NONE', #185, 39.37007874015748143 ) ;
#152 = ORIENTED_EDGE ( 'NONE', *, *, #156, .F. ) ;
#153 = EDGE_CURVE ( 'NONE', #85, #200, #23, .T. ) ;
#154 = CALENDAR_DATE ( 2025, 26, 8 ) ;
#155 = FACE_OUTER_BOUND ( 'NONE', #217, .T. ) ;
#156 = EDGE_CURVE ( 'NONE', #198, #200, #26, .T. ) ;
#157 = AXIS2_PLACEMENT_3D ( 'NONE', #43, #177, #61 ) ;
#158 = APPROVAL_DATE_TIME ( #64, #176 ) ;
#159 = CLOSED_SHELL ( 'NONE', ( #88, #30, #106, #202, #238, #164 ) ) ;
#160 = APPROVAL ( #250, 'UNSPECIFIED' ) ;
#161 = MANIFOLD_SOLID_BREP ( 'Boss-Extrude1', #159 ) ;
#162 = CARTESIAN_POINT ( 'NONE',  ( 0.000000000000000000, 0.000000000000000000, -0.2772499999999999409 ) ) ;
#163 = CYLINDRICAL_SURFACE ( 'NONE', #146, 0.4684999999999999165 ) ;
#164 = ADVANCED_FACE ( 'NONE', ( #68 ), #245, .F. ) ;
#165 = DIRECTION ( 'NONE',  ( 0.000000000000000000, 1.000000000000000000, 0.000000000000000000 ) ) ;
#166 = EDGE_CURVE ( 'NONE', #81, #14, #47, .T. ) ;
#167 = CALENDAR_DATE ( 2025, 26, 8 ) ;
#168 = ORIENTED_EDGE ( 'NONE', *, *, #219, .F. ) ;
#169 = DIRECTION ( 'NONE',  ( 0.000000000000000000, 1.000000000000000000, 0.000000000000000000 ) ) ;
#170 = APPLICATION_CONTEXT ( 'configuration controlled 3d designs of mechanical parts and assemblies' ) ;
#171 = DIRECTION ( 'NONE',  ( 0.000000000000000000, 0.000000000000000000, -1.000000000000000000 ) ) ;
#172 = PERSON_AND_ORGANIZATION ( #223, #221 ) ;
#173 = PERSON_AND_ORGANIZATION_ROLE ( 'creator' ) ;
#174 = EDGE_CURVE ( 'NONE', #81, #141, #231, .T. ) ;
#175 = CARTESIAN_POINT ( 'NONE',  ( 3.395333250636036336E-17, 0.06199999999999999956, 0.2772499999999999409 ) ) ;
#176 = APPROVAL ( #190, 'UNSPECIFIED' ) ;
#177 = DIRECTION ( 'NONE',  ( 0.000000000000000000, 1.000000000000000000, 0.000000000000000000 ) ) ;
#178 = ORIENTED_EDGE ( 'NONE', *, *, #174, .F. ) ;
#179 = APPROVAL_DATE_TIME ( #126, #240 ) ;
#180 = APPROVAL_DATE_TIME ( #104, #160 ) ;
#181 = CC_DESIGN_DATE_AND_TIME_ASSIGNMENT ( #236, #224, ( #4 ) ) ;
#182 = EDGE_CURVE ( 'NONE', #105, #198, #76, .T. ) ;
#183 = CIRCLE ( 'NONE', #46, 0.2772499999999999409 ) ;
#184 = EDGE_LOOP ( 'NONE', ( #73, #27 ) ) ;
#185 = DIRECTION ( 'NONE',  ( -0.000000000000000000, -1.000000000000000000, -0.000000000000000000 ) ) ;
#186 = FACE_OUTER_BOUND ( 'NONE', #184, .T. ) ;
#187 = CARTESIAN_POINT ( 'NONE',  ( 0.000000000000000000, 0.06199999999999999956, 0.000000000000000000 ) ) ;
#188 = ORIENTED_EDGE ( 'NONE', *, *, #215, .F. ) ;
#189 = DIRECTION ( 'NONE',  ( -0.000000000000000000, -1.000000000000000000, -0.000000000000000000 ) ) ;
#190 = APPROVAL_STATUS ( 'not_yet_approved' ) ;
#191 = PRODUCT_RELATED_PRODUCT_CATEGORY ( 'detail', '', ( #205 ) ) ;
#192 = APPROVAL_ROLE ( '' ) ;
#193 = CARTESIAN_POINT ( 'NONE',  ( 0.000000000000000000, 0.000000000000000000, 0.000000000000000000 ) ) ;
#194 = VECTOR ( 'NONE', #78, 39.37007874015748143 ) ;
#195 = ORIENTED_EDGE ( 'NONE', *, *, #174, .T. ) ;
#196 = DESIGN_CONTEXT ( 'detailed design', #74, 'design' ) ;
#197 = COORDINATED_UNIVERSAL_TIME_OFFSET ( 5, 0, .BEHIND. ) ;
#198 = VERTEX_POINT ( 'NONE', #149 ) ;
#199 = PERSON_AND_ORGANIZATION ( #223, #221 ) ;
#200 = VERTEX_POINT ( 'NONE', #22 ) ;
#201 = CARTESIAN_POINT ( 'NONE',  ( 0.000000000000000000, 0.000000000000000000, 0.000000000000000000 ) ) ;
#202 = ADVANCED_FACE ( 'NONE', ( #65, #51 ), #59, .F. ) ;
#203 = COORDINATED_UNIVERSAL_TIME_OFFSET ( 5, 0, .BEHIND. ) ;
#204 = EDGE_CURVE ( 'NONE', #135, #141, #183, .T. ) ;
#205 = PRODUCT ( 'GSK-705-K', 'GSK-705-K', '', ( #17 ) ) ;
#206 = APPROVAL_PERSON_ORGANIZATION ( #7, #160, #192 ) ;
#207 = CIRCLE ( 'NONE', #67, 0.2772499999999999409 ) ;
#208 = PERSON_AND_ORGANIZATION_ROLE ( 'classification_officer' ) ;
#209 = PERSON_AND_ORGANIZATION_ROLE ( 'design_supplier' ) ;
#210 = DATE_TIME_ROLE ( 'creation_date' ) ;
#211 = LOCAL_TIME ( 13, 57, 55.00000000000000000, #112 ) ;
#212 = CARTESIAN_POINT ( 'NONE',  ( 0.000000000000000000, 0.06199999999999999956, 0.000000000000000000 ) ) ;
#213 = APPLICATION_PROTOCOL_DEFINITION ( 'international standard', 'config_control_design', 1994, #170 ) ;
#214 = VECTOR ( 'NONE', #42, 39.37007874015748143 ) ;
#215 = EDGE_CURVE ( 'NONE', #141, #135, #13, .T. ) ;
#216 = LOCAL_TIME ( 13, 57, 55.00000000000000000, #5 ) ;
#217 = EDGE_LOOP ( 'NONE', ( #8, #222, #123, #152 ) ) ;
#218 = DATE_AND_TIME ( #62, #211 ) ;
#219 = EDGE_CURVE ( 'NONE', #200, #85, #138, .T. ) ;
#220 = CC_DESIGN_APPROVAL ( #160, ( #120 ) ) ;
#221 = ORGANIZATION ( 'UNSPECIFIED', 'UNSPECIFIED', '' ) ;
#222 = ORIENTED_EDGE ( 'NONE', *, *, #230, .T. ) ;
#223 = PERSON ( 'UNSPECIFIED', 'UNSPECIFIED', 'UNSPECIFIED', ('UNSPECIFIED'), ('UNSPECIFIED'), ('UNSPECIFIED') ) ;
#224 = DATE_TIME_ROLE ( 'classification_date' ) ;
#225 = CALENDAR_DATE ( 2025, 26, 8 ) ;
#226 = ORIENTED_EDGE ( 'NONE', *, *, #230, .F. ) ;
#227 = DIRECTION ( 'NONE',  ( 1.000000000000000000, 0.000000000000000000, 0.000000000000000000 ) ) ;
#228 = APPROVAL_ROLE ( '' ) ;
#229 = DIRECTION ( 'NONE',  ( 0.000000000000000000, 0.000000000000000000, 1.000000000000000000 ) ) ;
#230 = EDGE_CURVE ( 'NONE', #105, #85, #131, .T. ) ;
#231 = LINE ( 'NONE', #175, #194 ) ;
#232 = EDGE_LOOP ( 'NONE', ( #132, #195, #38, #118 ) ) ;
#233 = FACE_OUTER_BOUND ( 'NONE', #232, .T. ) ;
#234 = AXIS2_PLACEMENT_3D ( 'NONE', #128, #125, #242 ) ;
#235 = CC_DESIGN_PERSON_AND_ORGANIZATION_ASSIGNMENT ( #119, #209, ( #120 ) ) ;
#236 = DATE_AND_TIME ( #225, #100 ) ;
#237 = DIRECTION ( 'NONE',  ( 0.000000000000000000, 1.000000000000000000, 0.000000000000000000 ) ) ;
#238 = ADVANCED_FACE ( 'NONE', ( #80 ), #163, .T. ) ;
#239 = DIRECTION ( 'NONE',  ( 0.000000000000000000, 0.000000000000000000, -1.000000000000000000 ) ) ;
#240 = APPROVAL ( #114, 'UNSPECIFIED' ) ;
#241 = DIRECTION ( 'NONE',  ( -0.000000000000000000, -1.000000000000000000, -0.000000000000000000 ) ) ;
#242 = DIRECTION ( 'NONE',  ( 0.000000000000000000, 0.000000000000000000, 1.000000000000000000 ) ) ;
#243 = AXIS2_PLACEMENT_3D ( 'NONE', #116, #55, #53 ) ;
#244 = CARTESIAN_POINT ( 'NONE',  ( 0.000000000000000000, 0.06199999999999999956, -0.2772499999999999409 ) ) ;
#245 = CYLINDRICAL_SURFACE ( 'NONE', #121, 0.2772499999999999409 ) ;
#246 = CARTESIAN_POINT ( 'NONE',  ( 0.000000000000000000, 0.000000000000000000, 0.000000000000000000 ) ) ;
#247 = ADVANCED_BREP_SHAPE_REPRESENTATION ( 'GSK-705-K', ( #161, #35 ), #110 ) ;
#248 = ORIENTED_EDGE ( 'NONE', *, *, #166, .F. ) ;
#249 = CARTESIAN_POINT ( 'NONE',  ( 0.000000000000000000, 0.000000000000000000, 0.000000000000000000 ) ) ;
#250 = APPROVAL_STATUS ( 'not_yet_approved' ) ;
#251 = AXIS2_PLACEMENT_3D ( 'NONE', #109, #241, #91 ) ;
#252 = PERSON_AND_ORGANIZATION ( #223, #221 ) ;
ENDSEC;
END-ISO-10303-21;
