ISO-10303-21;
HEADER;
FILE_DESCRIPTION (( 'STEP AP203' ),
    '1' );
FILE_NAME ('GSK-705-T.STEP',
    '2025-08-26T18:13:31',
    ( '' ),
    ( '' ),
    'SwSTEP 2.0',
    'SolidWorks 2018',
    '' );
FILE_SCHEMA (( 'CONFIG_CONTROL_DESIGN' ));
ENDSEC;

DATA;
#1 = DIRECTION ( 'NONE',  ( 0.000000000000000000, 0.000000000000000000, 1.000000000000000000 ) ) ;
#2 = EDGE_LOOP ( 'NONE', ( #55, #113 ) ) ;
#3 = DIRECTION ( 'NONE',  ( 0.000000000000000000, 0.000000000000000000, -1.000000000000000000 ) ) ;
#4 = CARTESIAN_POINT ( 'NONE',  ( 0.000000000000000000, 0.000000000000000000, 0.000000000000000000 ) ) ;
#5 = CC_DESIGN_PERSON_AND_ORGANIZATION_ASSIGNMENT ( #13, #244, ( #219 ) ) ;
#6 = DIRECTION ( 'NONE',  ( 0.000000000000000000, 1.000000000000000000, 0.000000000000000000 ) ) ;
#7 = COORDINATED_UNIVERSAL_TIME_OFFSET ( 5, 0, .BEHIND. ) ;
#8 = FACE_OUTER_BOUND ( 'NONE', #130, .T. ) ;
#9 = APPROVAL_STATUS ( 'not_yet_approved' ) ;
#10 =( NAMED_UNIT ( * ) PLANE_ANGLE_UNIT ( ) SI_UNIT ( $, .RADIAN. ) );
#11 =( LENGTH_UNIT ( ) NAMED_UNIT ( * ) SI_UNIT ( $, .METRE. ) );
#12 = EDGE_CURVE ( 'NONE', #101, #35, #114, .T. ) ;
#13 = PERSON_AND_ORGANIZATION ( #41, #34 ) ;
#14 = AXIS2_PLACEMENT_3D ( 'NONE', #124, #235, #3 ) ;
#15 = ORIENTED_EDGE ( 'NONE', *, *, #249, .T. ) ;
#16 = CALENDAR_DATE ( 2025, 26, 8 ) ;
#17 = DIRECTION ( 'NONE',  ( -0.000000000000000000, -1.000000000000000000, -0.000000000000000000 ) ) ;
#18 = CIRCLE ( 'NONE', #36, 0.2772499999999999409 ) ;
#19 = ORIENTED_EDGE ( 'NONE', *, *, #181, .T. ) ;
#20 = EDGE_CURVE ( 'NONE', #21, #136, #61, .T. ) ;
#21 = VERTEX_POINT ( 'NONE', #62 ) ;
#22 = CARTESIAN_POINT ( 'NONE',  ( 0.000000000000000000, 0.06199999999999999956, 0.000000000000000000 ) ) ;
#23 = ORIENTED_EDGE ( 'NONE', *, *, #20, .F. ) ;
#24 = CARTESIAN_POINT ( 'NONE',  ( 0.000000000000000000, 0.000000000000000000, -0.4684999999999999165 ) ) ;
#25 = DIRECTION ( 'NONE',  ( -0.000000000000000000, -1.000000000000000000, -0.000000000000000000 ) ) ;
#26 = APPROVAL_DATE_TIME ( #177, #80 ) ;
#27 = CYLINDRICAL_SURFACE ( 'NONE', #14, 0.2772499999999999409 ) ;
#28 = DIRECTION ( 'NONE',  ( -0.000000000000000000, -1.000000000000000000, -0.000000000000000000 ) ) ;
#29 = AXIS2_PLACEMENT_3D ( 'NONE', #4, #87, #137 ) ;
#30 = PERSON_AND_ORGANIZATION_ROLE ( 'design_supplier' ) ;
#31 = VERTEX_POINT ( 'NONE', #39 ) ;
#32 = DATE_TIME_ROLE ( 'creation_date' ) ;
#33 = APPROVAL_PERSON_ORGANIZATION ( #121, #250, #51 ) ;
#34 = ORGANIZATION ( 'UNSPECIFIED', 'UNSPECIFIED', '' ) ;
#35 = VERTEX_POINT ( 'NONE', #42 ) ;
#36 = AXIS2_PLACEMENT_3D ( 'NONE', #153, #170, #85 ) ;
#37 = ORIENTED_EDGE ( 'NONE', *, *, #147, .T. ) ;
#38 = LOCAL_TIME ( 14, 13, 31.00000000000000000, #7 ) ;
#39 = CARTESIAN_POINT ( 'NONE',  ( 0.000000000000000000, 0.000000000000000000, -0.2772499999999999409 ) ) ;
#40 = VECTOR ( 'NONE', #131, 39.37007874015748143 ) ;
#41 = PERSON ( 'UNSPECIFIED', 'UNSPECIFIED', 'UNSPECIFIED', ('UNSPECIFIED'), ('UNSPECIFIED'), ('UNSPECIFIED') ) ;
#42 = CARTESIAN_POINT ( 'NONE',  ( 0.000000000000000000, 0.06199999999999999956, -0.4684999999999999165 ) ) ;
#43 = DIRECTION ( 'NONE',  ( 0.000000000000000000, 0.000000000000000000, 1.000000000000000000 ) ) ;
#44 = CARTESIAN_POINT ( 'NONE',  ( 0.000000000000000000, 0.06199999999999999956, -0.4684999999999999165 ) ) ;
#45 = SECURITY_CLASSIFICATION ( '', '', #158 ) ;
#46 = CARTESIAN_POINT ( 'NONE',  ( 0.000000000000000000, 0.06199999999999999956, 0.000000000000000000 ) ) ;
#47 = LOCAL_TIME ( 14, 13, 31.00000000000000000, #93 ) ;
#48 = ORIENTED_EDGE ( 'NONE', *, *, #249, .F. ) ;
#49 =( NAMED_UNIT ( * ) SI_UNIT ( $, .STERADIAN. ) SOLID_ANGLE_UNIT ( ) );
#50 = CALENDAR_DATE ( 2025, 26, 8 ) ;
#51 = APPROVAL_ROLE ( '' ) ;
#52 = ORIENTED_EDGE ( 'NONE', *, *, #197, .T. ) ;
#53 = AXIS2_PLACEMENT_3D ( 'NONE', #176, #157, #202 ) ;
#54 = FACE_OUTER_BOUND ( 'NONE', #234, .T. ) ;
#55 = ORIENTED_EDGE ( 'NONE', *, *, #65, .F. ) ;
#56 = EDGE_LOOP ( 'NONE', ( #111, #69, #205, #237 ) ) ;
#57 = UNCERTAINTY_MEASURE_WITH_UNIT (LENGTH_MEASURE( 1.000000000000000082E-05 ), #174, 'distance_accuracy_value', 'NONE');
#58 = PRODUCT_RELATED_PRODUCT_CATEGORY ( 'detail', '', ( #165 ) ) ;
#59 = FACE_BOUND ( 'NONE', #182, .T. ) ;
#60 = ORIENTED_EDGE ( 'NONE', *, *, #76, .T. ) ;
#61 = CIRCLE ( 'NONE', #104, 0.2772499999999999409 ) ;
#62 = CARTESIAN_POINT ( 'NONE',  ( 3.395333250636036336E-17, 0.06199999999999999956, 0.2772499999999999409 ) ) ;
#63 = CARTESIAN_POINT ( 'NONE',  ( 0.000000000000000000, 0.06199999999999999956, -0.2772499999999999409 ) ) ;
#64 = LOCAL_TIME ( 14, 13, 31.00000000000000000, #138 ) ;
#65 = EDGE_CURVE ( 'NONE', #145, #171, #188, .T. ) ;
#66 = ORIENTED_EDGE ( 'NONE', *, *, #197, .F. ) ;
#67 = CARTESIAN_POINT ( 'NONE',  ( 0.000000000000000000, 0.06199999999999999956, 0.000000000000000000 ) ) ;
#68 = CC_DESIGN_DATE_AND_TIME_ASSIGNMENT ( #83, #32, ( #219 ) ) ;
#69 = ORIENTED_EDGE ( 'NONE', *, *, #97, .F. ) ;
#70 = CARTESIAN_POINT ( 'NONE',  ( 3.395333250636036336E-17, 0.06199999999999999956, 0.2772499999999999409 ) ) ;
#71 = APPLICATION_CONTEXT ( 'configuration controlled 3d designs of mechanical parts and assemblies' ) ;
#72 = CC_DESIGN_PERSON_AND_ORGANIZATION_ASSIGNMENT ( #134, #95, ( #252 ) ) ;
#73 = AXIS2_PLACEMENT_3D ( 'NONE', #206, #148, #209 ) ;
#74 = CLOSED_SHELL ( 'NONE', ( #135, #227, #163, #186, #150, #117 ) ) ;
#75 = EDGE_LOOP ( 'NONE', ( #198, #204 ) ) ;
#76 = EDGE_CURVE ( 'NONE', #136, #31, #164, .T. ) ;
#77 = CC_DESIGN_APPROVAL ( #203, ( #219 ) ) ;
#78 = DIRECTION ( 'NONE',  ( 0.000000000000000000, 1.000000000000000000, 0.000000000000000000 ) ) ;
#79 = DATE_AND_TIME ( #16, #118 ) ;
#80 = APPROVAL ( #9, 'UNSPECIFIED' ) ;
#81 = DIRECTION ( 'NONE',  ( 0.000000000000000000, -0.000000000000000000, 1.000000000000000000 ) ) ;
#82 = DIRECTION ( 'NONE',  ( 0.000000000000000000, 1.000000000000000000, 0.000000000000000000 ) ) ;
#83 = DATE_AND_TIME ( #178, #38 ) ;
#84 = EDGE_LOOP ( 'NONE', ( #48, #115, #60, #248 ) ) ;
#85 = DIRECTION ( 'NONE',  ( 0.000000000000000000, 0.000000000000000000, 1.000000000000000000 ) ) ;
#86 = CARTESIAN_POINT ( 'NONE',  ( 5.737470254005348781E-17, 0.000000000000000000, 0.4684999999999999165 ) ) ;
#87 = DIRECTION ( 'NONE',  ( 0.000000000000000000, 1.000000000000000000, 0.000000000000000000 ) ) ;
#88 = FACE_OUTER_BOUND ( 'NONE', #2, .T. ) ;
#89 = APPROVAL_ROLE ( '' ) ;
#90 = AXIS2_PLACEMENT_3D ( 'NONE', #229, #78, #1 ) ;
#91 = APPROVAL_STATUS ( 'not_yet_approved' ) ;
#92 = CC_DESIGN_APPROVAL ( #80, ( #252 ) ) ;
#93 = COORDINATED_UNIVERSAL_TIME_OFFSET ( 5, 0, .BEHIND. ) ;
#94 = FACE_OUTER_BOUND ( 'NONE', #75, .T. ) ;
#95 = PERSON_AND_ORGANIZATION_ROLE ( 'creator' ) ;
#96 = LINE ( 'NONE', #70, #40 ) ;
#97 = EDGE_CURVE ( 'NONE', #35, #101, #184, .T. ) ;
#98 = CC_DESIGN_PERSON_AND_ORGANIZATION_ASSIGNMENT ( #159, #30, ( #252 ) ) ;
#99 = AXIS2_PLACEMENT_3D ( 'NONE', #167, #154, #191 ) ;
#100 = CALENDAR_DATE ( 2025, 26, 8 ) ;
#101 = VERTEX_POINT ( 'NONE', #212 ) ;
#102 = DIMENSIONAL_EXPONENTS ( 1.000000000000000000, 0.000000000000000000, 0.000000000000000000, 0.000000000000000000, 0.000000000000000000, 0.000000000000000000, 0.000000000000000000 ) ;
#103 = DIRECTION ( 'NONE',  ( 0.000000000000000000, 0.000000000000000000, 1.000000000000000000 ) ) ;
#104 = AXIS2_PLACEMENT_3D ( 'NONE', #189, #185, #103 ) ;
#105 = PERSON_AND_ORGANIZATION ( #41, #34 ) ;
#106 = ORIENTED_EDGE ( 'NONE', *, *, #246, .F. ) ;
#107 = CARTESIAN_POINT ( 'NONE',  ( 0.000000000000000000, 0.06199999999999999956, -0.2772499999999999409 ) ) ;
#108 = CARTESIAN_POINT ( 'NONE',  ( 5.737470254005348781E-17, 0.06199999999999999956, 0.4684999999999999165 ) ) ;
#109 = LINE ( 'NONE', #44, #112 ) ;
#110 = CIRCLE ( 'NONE', #99, 0.2772499999999999409 ) ;
#111 = ORIENTED_EDGE ( 'NONE', *, *, #147, .F. ) ;
#112 = VECTOR ( 'NONE', #28, 39.37007874015748143 ) ;
#113 = ORIENTED_EDGE ( 'NONE', *, *, #156, .F. ) ;
#114 = CIRCLE ( 'NONE', #90, 0.4684999999999999165 ) ;
#115 = ORIENTED_EDGE ( 'NONE', *, *, #20, .T. ) ;
#116 = LENGTH_MEASURE_WITH_UNIT ( LENGTH_MEASURE( 0.02539999999999999897 ), #11 );
#117 = ADVANCED_FACE ( 'NONE', ( #140 ), #218, .F. ) ;
#118 = LOCAL_TIME ( 14, 13, 31.00000000000000000, #241 ) ;
#119 = APPROVAL_DATE_TIME ( #232, #203 ) ;
#120 = VECTOR ( 'NONE', #215, 39.37007874015748143 ) ;
#121 = PERSON_AND_ORGANIZATION ( #41, #34 ) ;
#122 = DIRECTION ( 'NONE',  ( -0.000000000000000000, -1.000000000000000000, -0.000000000000000000 ) ) ;
#123 = DIRECTION ( 'NONE',  ( 0.000000000000000000, 1.000000000000000000, 0.000000000000000000 ) ) ;
#124 = CARTESIAN_POINT ( 'NONE',  ( 0.000000000000000000, 0.06199999999999999956, 0.000000000000000000 ) ) ;
#125 = ORIENTED_EDGE ( 'NONE', *, *, #144, .T. ) ;
#126 = DIRECTION ( 'NONE',  ( 0.000000000000000000, 0.000000000000000000, -1.000000000000000000 ) ) ;
#127 = PRODUCT_DEFINITION_SHAPE ( 'NONE', 'NONE',  #219 ) ;
#128 = CARTESIAN_POINT ( 'NONE',  ( 0.000000000000000000, 0.06199999999999999956, 0.000000000000000000 ) ) ;
#129 = PERSON_AND_ORGANIZATION_ROLE ( 'design_owner' ) ;
#130 = EDGE_LOOP ( 'NONE', ( #19, #15, #66, #155 ) ) ;
#131 = DIRECTION ( 'NONE',  ( -0.000000000000000000, -1.000000000000000000, -0.000000000000000000 ) ) ;
#132 = COORDINATED_UNIVERSAL_TIME_OFFSET ( 5, 0, .BEHIND. ) ;
#133 = LINE ( 'NONE', #108, #120 ) ;
#134 = PERSON_AND_ORGANIZATION ( #41, #34 ) ;
#135 = ADVANCED_FACE ( 'NONE', ( #8 ), #27, .F. ) ;
#136 = VERTEX_POINT ( 'NONE', #107 ) ;
#137 = DIRECTION ( 'NONE',  ( 0.000000000000000000, -0.000000000000000000, 1.000000000000000000 ) ) ;
#138 = COORDINATED_UNIVERSAL_TIME_OFFSET ( 5, 0, .BEHIND. ) ;
#139 = CYLINDRICAL_SURFACE ( 'NONE', #211, 0.4684999999999999165 ) ;
#140 = FACE_OUTER_BOUND ( 'NONE', #84, .T. ) ;
#141 = CIRCLE ( 'NONE', #190, 0.4684999999999999165 ) ;
#142 = APPLICATION_PROTOCOL_DEFINITION ( 'international standard', 'config_control_design', 1994, #71 ) ;
#143 = CC_DESIGN_APPROVAL ( #250, ( #45 ) ) ;
#144 = EDGE_CURVE ( 'NONE', #179, #31, #110, .T. ) ;
#145 = VERTEX_POINT ( 'NONE', #24 ) ;
#146 = SHAPE_DEFINITION_REPRESENTATION ( #127, #233 ) ;
#147 = EDGE_CURVE ( 'NONE', #101, #171, #133, .T. ) ;
#148 = DIRECTION ( 'NONE',  ( 0.000000000000000000, 1.000000000000000000, 0.000000000000000000 ) ) ;
#149 = DESIGN_CONTEXT ( 'detailed design', #239, 'design' ) ;
#150 = ADVANCED_FACE ( 'NONE', ( #251 ), #166, .T. ) ;
#151 = CIRCLE ( 'NONE', #161, 0.2772499999999999409 ) ;
#152 = PLANE ( 'NONE',  #220 ) ;
#153 = CARTESIAN_POINT ( 'NONE',  ( 0.000000000000000000, 0.000000000000000000, 0.000000000000000000 ) ) ;
#154 = DIRECTION ( 'NONE',  ( 0.000000000000000000, 1.000000000000000000, 0.000000000000000000 ) ) ;
#155 = ORIENTED_EDGE ( 'NONE', *, *, #76, .F. ) ;
#156 = EDGE_CURVE ( 'NONE', #171, #145, #141, .T. ) ;
#157 = DIRECTION ( 'NONE',  ( 0.000000000000000000, 0.000000000000000000, 1.000000000000000000 ) ) ;
#158 = SECURITY_CLASSIFICATION_LEVEL ( 'unclassified' ) ;
#159 = PERSON_AND_ORGANIZATION ( #41, #34 ) ;
#160 = AXIS2_PLACEMENT_3D ( 'NONE', #67, #6, #195 ) ;
#161 = AXIS2_PLACEMENT_3D ( 'NONE', #192, #82, #210 ) ;
#162 = ORIENTED_EDGE ( 'NONE', *, *, #156, .T. ) ;
#163 = ADVANCED_FACE ( 'NONE', ( #94, #196 ), #152, .T. ) ;
#164 = LINE ( 'NONE', #63, #208 ) ;
#165 = PRODUCT ( 'GSK-705-T', 'GSK-705-T', '', ( #199 ) ) ;
#166 = CYLINDRICAL_SURFACE ( 'NONE', #228, 0.4684999999999999165 ) ;
#167 = CARTESIAN_POINT ( 'NONE',  ( 0.000000000000000000, 0.000000000000000000, 0.000000000000000000 ) ) ;
#168 = DIRECTION ( 'NONE',  ( 0.000000000000000000, 0.000000000000000000, -1.000000000000000000 ) ) ;
#169 = CC_DESIGN_DATE_AND_TIME_ASSIGNMENT ( #79, #216, ( #45 ) ) ;
#170 = DIRECTION ( 'NONE',  ( 0.000000000000000000, 1.000000000000000000, 0.000000000000000000 ) ) ;
#171 = VERTEX_POINT ( 'NONE', #86 ) ;
#172 = CARTESIAN_POINT ( 'NONE',  ( 0.000000000000000000, 0.000000000000000000, 0.000000000000000000 ) ) ;
#173 = CARTESIAN_POINT ( 'NONE',  ( 3.395333250636036336E-17, 0.000000000000000000, 0.2772499999999999409 ) ) ;
#174 =( CONVERSION_BASED_UNIT ( 'INCH', #116 ) LENGTH_UNIT ( ) NAMED_UNIT ( #102 ) );
#175 = PERSON_AND_ORGANIZATION ( #41, #34 ) ;
#176 = CARTESIAN_POINT ( 'NONE',  ( 0.000000000000000000, 0.000000000000000000, 0.000000000000000000 ) ) ;
#177 = DATE_AND_TIME ( #213, #187 ) ;
#178 = CALENDAR_DATE ( 2025, 26, 8 ) ;
#179 = VERTEX_POINT ( 'NONE', #173 ) ;
#180 = CC_DESIGN_SECURITY_CLASSIFICATION ( #45, ( #252 ) ) ;
#181 = EDGE_CURVE ( 'NONE', #136, #21, #151, .T. ) ;
#182 = EDGE_LOOP ( 'NONE', ( #52, #125 ) ) ;
#183 = APPROVAL_PERSON_ORGANIZATION ( #243, #203, #89 ) ;
#184 = CIRCLE ( 'NONE', #160, 0.4684999999999999165 ) ;
#185 = DIRECTION ( 'NONE',  ( 0.000000000000000000, 1.000000000000000000, 0.000000000000000000 ) ) ;
#186 = ADVANCED_FACE ( 'NONE', ( #88, #59 ), #214, .F. ) ;
#187 = LOCAL_TIME ( 14, 13, 31.00000000000000000, #132 ) ;
#188 = CIRCLE ( 'NONE', #73, 0.4684999999999999165 ) ;
#189 = CARTESIAN_POINT ( 'NONE',  ( 0.000000000000000000, 0.06199999999999999956, 0.000000000000000000 ) ) ;
#190 = AXIS2_PLACEMENT_3D ( 'NONE', #172, #236, #43 ) ;
#191 = DIRECTION ( 'NONE',  ( 0.000000000000000000, 0.000000000000000000, 1.000000000000000000 ) ) ;
#192 = CARTESIAN_POINT ( 'NONE',  ( 0.000000000000000000, 0.06199999999999999956, 0.000000000000000000 ) ) ;
#193 = DIRECTION ( 'NONE',  ( -0.000000000000000000, -1.000000000000000000, -0.000000000000000000 ) ) ;
#194 = CARTESIAN_POINT ( 'NONE',  ( 0.000000000000000000, 0.06199999999999999956, 0.000000000000000000 ) ) ;
#195 = DIRECTION ( 'NONE',  ( 0.000000000000000000, 0.000000000000000000, 1.000000000000000000 ) ) ;
#196 = FACE_BOUND ( 'NONE', #226, .T. ) ;
#197 = EDGE_CURVE ( 'NONE', #31, #179, #18, .T. ) ;
#198 = ORIENTED_EDGE ( 'NONE', *, *, #97, .T. ) ;
#199 = MECHANICAL_CONTEXT ( 'NONE', #71, 'mechanical' ) ;
#200 = PERSON_AND_ORGANIZATION_ROLE ( 'classification_officer' ) ;
#201 = APPROVAL_ROLE ( '' ) ;
#202 = DIRECTION ( 'NONE',  ( 1.000000000000000000, 0.000000000000000000, 0.000000000000000000 ) ) ;
#203 = APPROVAL ( #242, 'UNSPECIFIED' ) ;
#204 = ORIENTED_EDGE ( 'NONE', *, *, #12, .T. ) ;
#205 = ORIENTED_EDGE ( 'NONE', *, *, #246, .T. ) ;
#206 = CARTESIAN_POINT ( 'NONE',  ( 0.000000000000000000, 0.000000000000000000, 0.000000000000000000 ) ) ;
#207 = MANIFOLD_SOLID_BREP ( 'Boss-Extrude1', #74 ) ;
#208 = VECTOR ( 'NONE', #17, 39.37007874015748143 ) ;
#209 = DIRECTION ( 'NONE',  ( 0.000000000000000000, 0.000000000000000000, 1.000000000000000000 ) ) ;
#210 = DIRECTION ( 'NONE',  ( 0.000000000000000000, 0.000000000000000000, 1.000000000000000000 ) ) ;
#211 = AXIS2_PLACEMENT_3D ( 'NONE', #128, #25, #126 ) ;
#212 = CARTESIAN_POINT ( 'NONE',  ( 5.737470254005348781E-17, 0.06199999999999999956, 0.4684999999999999165 ) ) ;
#213 = CALENDAR_DATE ( 2025, 26, 8 ) ;
#214 = PLANE ( 'NONE',  #29 ) ;
#215 = DIRECTION ( 'NONE',  ( -0.000000000000000000, -1.000000000000000000, -0.000000000000000000 ) ) ;
#216 = DATE_TIME_ROLE ( 'classification_date' ) ;
#217 = APPLICATION_PROTOCOL_DEFINITION ( 'international standard', 'config_control_design', 1994, #239 ) ;
#218 = CYLINDRICAL_SURFACE ( 'NONE', #221, 0.2772499999999999409 ) ;
#219 = PRODUCT_DEFINITION ( 'UNKNOWN', '', #252, #149 ) ;
#220 = AXIS2_PLACEMENT_3D ( 'NONE', #194, #123, #81 ) ;
#221 = AXIS2_PLACEMENT_3D ( 'NONE', #22, #122, #231 ) ;
#222 = APPROVAL_DATE_TIME ( #224, #250 ) ;
#223 = ORIENTED_EDGE ( 'NONE', *, *, #181, .F. ) ;
#224 = DATE_AND_TIME ( #50, #64 ) ;
#225 = PERSON_AND_ORGANIZATION ( #41, #34 ) ;
#226 = EDGE_LOOP ( 'NONE', ( #223, #23 ) ) ;
#227 = ADVANCED_FACE ( 'NONE', ( #54 ), #139, .T. ) ;
#228 = AXIS2_PLACEMENT_3D ( 'NONE', #46, #193, #168 ) ;
#229 = CARTESIAN_POINT ( 'NONE',  ( 0.000000000000000000, 0.06199999999999999956, 0.000000000000000000 ) ) ;
#230 = CC_DESIGN_PERSON_AND_ORGANIZATION_ASSIGNMENT ( #175, #200, ( #45 ) ) ;
#231 = DIRECTION ( 'NONE',  ( 0.000000000000000000, 0.000000000000000000, -1.000000000000000000 ) ) ;
#232 = DATE_AND_TIME ( #100, #47 ) ;
#233 = ADVANCED_BREP_SHAPE_REPRESENTATION ( 'GSK-705-T', ( #207, #53 ), #240 ) ;
#234 = EDGE_LOOP ( 'NONE', ( #238, #37, #162, #106 ) ) ;
#235 = DIRECTION ( 'NONE',  ( -0.000000000000000000, -1.000000000000000000, -0.000000000000000000 ) ) ;
#236 = DIRECTION ( 'NONE',  ( 0.000000000000000000, 1.000000000000000000, 0.000000000000000000 ) ) ;
#237 = ORIENTED_EDGE ( 'NONE', *, *, #65, .T. ) ;
#238 = ORIENTED_EDGE ( 'NONE', *, *, #12, .F. ) ;
#239 = APPLICATION_CONTEXT ( 'configuration controlled 3d designs of mechanical parts and assemblies' ) ;
#240 =( GEOMETRIC_REPRESENTATION_CONTEXT ( 3 ) GLOBAL_UNCERTAINTY_ASSIGNED_CONTEXT ( ( #57 ) ) GLOBAL_UNIT_ASSIGNED_CONTEXT ( ( #174, #10, #49 ) ) REPRESENTATION_CONTEXT ( 'NONE', 'WORKASPACE' ) );
#241 = COORDINATED_UNIVERSAL_TIME_OFFSET ( 5, 0, .BEHIND. ) ;
#242 = APPROVAL_STATUS ( 'not_yet_approved' ) ;
#243 = PERSON_AND_ORGANIZATION ( #41, #34 ) ;
#244 = PERSON_AND_ORGANIZATION_ROLE ( 'creator' ) ;
#245 = CC_DESIGN_PERSON_AND_ORGANIZATION_ASSIGNMENT ( #105, #129, ( #165 ) ) ;
#246 = EDGE_CURVE ( 'NONE', #35, #145, #109, .T. ) ;
#247 = APPROVAL_PERSON_ORGANIZATION ( #225, #80, #201 ) ;
#248 = ORIENTED_EDGE ( 'NONE', *, *, #144, .F. ) ;
#249 = EDGE_CURVE ( 'NONE', #21, #179, #96, .T. ) ;
#250 = APPROVAL ( #91, 'UNSPECIFIED' ) ;
#251 = FACE_OUTER_BOUND ( 'NONE', #56, .T. ) ;
#252 = PRODUCT_DEFINITION_FORMATION_WITH_SPECIFIED_SOURCE ( 'ANY', '', #165, .NOT_KNOWN. ) ;
ENDSEC;
END-ISO-10303-21;
