ISO-10303-21;
HEADER;
FILE_DESCRIPTION (( 'STEP AP203' ),
    '1' );
FILE_NAME ('GSK-DIN1-T.STEP',
    '2025-08-26T20:05:08',
    ( '' ),
    ( '' ),
    'SwSTEP 2.0',
    'SolidWorks 2018',
    '' );
FILE_SCHEMA (( 'CONFIG_CONTROL_DESIGN' ));
ENDSEC;

DATA;
#1 = DATE_TIME_ROLE ( 'creation_date' ) ;
#2 = VECTOR ( 'NONE', #219, 39.37007874015748143 ) ;
#3 = UNCERTAINTY_MEASURE_WITH_UNIT (LENGTH_MEASURE( 1.000000000000000082E-05 ), #211, 'distance_accuracy_value', 'NONE');
#4 = VERTEX_POINT ( 'NONE', #99 ) ;
#5 = CARTESIAN_POINT ( 'NONE',  ( 2.847303808017596681E-17, 0.000000000000000000, 0.2325000000000000122 ) ) ;
#6 = ORIENTED_EDGE ( 'NONE', *, *, #187, .F. ) ;
#7 = PRODUCT_DEFINITION ( 'UNKNOWN', '', #74, #63 ) ;
#8 = APPROVAL_PERSON_ORGANIZATION ( #229, #120, #110 ) ;
#9 = DIRECTION ( 'NONE',  ( 0.000000000000000000, 0.000000000000000000, -1.000000000000000000 ) ) ;
#10 = EDGE_LOOP ( 'NONE', ( #199, #57, #41, #21 ) ) ;
#11 = CC_DESIGN_PERSON_AND_ORGANIZATION_ASSIGNMENT ( #174, #177, ( #221 ) ) ;
#12 = APPLICATION_PROTOCOL_DEFINITION ( 'international standard', 'config_control_design', 1994, #231 ) ;
#13 = APPROVAL ( #58, 'UNSPECIFIED' ) ;
#14 = CARTESIAN_POINT ( 'NONE',  ( 0.000000000000000000, 0.000000000000000000, 0.000000000000000000 ) ) ;
#15 = CARTESIAN_POINT ( 'NONE',  ( 0.000000000000000000, 0.07900000000000000078, 0.000000000000000000 ) ) ;
#16 = COORDINATED_UNIVERSAL_TIME_OFFSET ( 5, 0, .BEHIND. ) ;
#17 = CYLINDRICAL_SURFACE ( 'NONE', #33, 0.3592499999999998472 ) ;
#18 = LOCAL_TIME ( 16, 5, 8.000000000000000000, #124 ) ;
#19 = EDGE_LOOP ( 'NONE', ( #119, #88, #50, #235 ) ) ;
#20 = PERSON_AND_ORGANIZATION ( #182, #143 ) ;
#21 = ORIENTED_EDGE ( 'NONE', *, *, #103, .F. ) ;
#22 = CC_DESIGN_APPROVAL ( #13, ( #7 ) ) ;
#23 = CALENDAR_DATE ( 2025, 26, 8 ) ;
#24 = EDGE_CURVE ( 'NONE', #203, #45, #137, .T. ) ;
#25 = ORIENTED_EDGE ( 'NONE', *, *, #94, .T. ) ;
#26 = CARTESIAN_POINT ( 'NONE',  ( 2.847303808017596681E-17, 0.07900000000000000078, 0.2325000000000000122 ) ) ;
#27 = DIRECTION ( 'NONE',  ( 0.000000000000000000, 0.000000000000000000, -1.000000000000000000 ) ) ;
#28 = DIRECTION ( 'NONE',  ( 0.000000000000000000, 1.000000000000000000, 0.000000000000000000 ) ) ;
#29 = VERTEX_POINT ( 'NONE', #5 ) ;
#30 = DIRECTION ( 'NONE',  ( 0.000000000000000000, 0.000000000000000000, 1.000000000000000000 ) ) ;
#31 = CARTESIAN_POINT ( 'NONE',  ( 2.847303808017596681E-17, 0.07900000000000000078, 0.2325000000000000122 ) ) ;
#32 = ORIENTED_EDGE ( 'NONE', *, *, #94, .F. ) ;
#33 = AXIS2_PLACEMENT_3D ( 'NONE', #67, #101, #206 ) ;
#34 = CARTESIAN_POINT ( 'NONE',  ( 0.000000000000000000, 0.000000000000000000, 0.000000000000000000 ) ) ;
#35 = DIRECTION ( 'NONE',  ( 1.000000000000000000, 0.000000000000000000, 0.000000000000000000 ) ) ;
#36 = FACE_OUTER_BOUND ( 'NONE', #71, .T. ) ;
#37 = CIRCLE ( 'NONE', #242, 0.2325000000000000122 ) ;
#38 = DATE_TIME_ROLE ( 'classification_date' ) ;
#39 = AXIS2_PLACEMENT_3D ( 'NONE', #200, #28, #205 ) ;
#40 = ORIENTED_EDGE ( 'NONE', *, *, #139, .F. ) ;
#41 = ORIENTED_EDGE ( 'NONE', *, *, #115, .F. ) ;
#42 = CARTESIAN_POINT ( 'NONE',  ( 0.000000000000000000, 0.07900000000000000078, 0.000000000000000000 ) ) ;
#43 = CARTESIAN_POINT ( 'NONE',  ( 0.000000000000000000, 0.000000000000000000, -0.3592499999999998472 ) ) ;
#44 = PERSON_AND_ORGANIZATION ( #182, #143 ) ;
#45 = VERTEX_POINT ( 'NONE', #26 ) ;
#46 = DIRECTION ( 'NONE',  ( 0.000000000000000000, 0.000000000000000000, 1.000000000000000000 ) ) ;
#47 = COORDINATED_UNIVERSAL_TIME_OFFSET ( 5, 0, .BEHIND. ) ;
#48 = EDGE_LOOP ( 'NONE', ( #82, #218 ) ) ;
#49 = DIRECTION ( 'NONE',  ( -0.000000000000000000, -1.000000000000000000, -0.000000000000000000 ) ) ;
#50 = ORIENTED_EDGE ( 'NONE', *, *, #103, .T. ) ;
#51 = DIRECTION ( 'NONE',  ( -0.000000000000000000, -1.000000000000000000, -0.000000000000000000 ) ) ;
#52 = APPROVAL_PERSON_ORGANIZATION ( #75, #93, #212 ) ;
#53 = VERTEX_POINT ( 'NONE', #162 ) ;
#54 = DIRECTION ( 'NONE',  ( 0.000000000000000000, 1.000000000000000000, 0.000000000000000000 ) ) ;
#55 = CARTESIAN_POINT ( 'NONE',  ( 0.000000000000000000, 0.000000000000000000, 0.000000000000000000 ) ) ;
#56 =( NAMED_UNIT ( * ) SI_UNIT ( $, .STERADIAN. ) SOLID_ANGLE_UNIT ( ) );
#57 = ORIENTED_EDGE ( 'NONE', *, *, #131, .T. ) ;
#58 = APPROVAL_STATUS ( 'not_yet_approved' ) ;
#59 = AXIS2_PLACEMENT_3D ( 'NONE', #166, #126, #9 ) ;
#60 = ADVANCED_FACE ( 'NONE', ( #250, #125 ), #83, .F. ) ;
#61 = FACE_OUTER_BOUND ( 'NONE', #10, .T. ) ;
#62 = CARTESIAN_POINT ( 'NONE',  ( 0.000000000000000000, 0.000000000000000000, 0.000000000000000000 ) ) ;
#63 = DESIGN_CONTEXT ( 'detailed design', #178, 'design' ) ;
#64 = DIRECTION ( 'NONE',  ( 0.000000000000000000, 1.000000000000000000, 0.000000000000000000 ) ) ;
#65 = DATE_AND_TIME ( #172, #18 ) ;
#66 = AXIS2_PLACEMENT_3D ( 'NONE', #227, #128, #30 ) ;
#67 = CARTESIAN_POINT ( 'NONE',  ( 0.000000000000000000, 0.07900000000000000078, 0.000000000000000000 ) ) ;
#68 = CIRCLE ( 'NONE', #66, 0.3592499999999998472 ) ;
#69 = AXIS2_PLACEMENT_3D ( 'NONE', #15, #132, #104 ) ;
#70 = APPROVAL_DATE_TIME ( #118, #13 ) ;
#71 = EDGE_LOOP ( 'NONE', ( #179, #196 ) ) ;
#72 = DIRECTION ( 'NONE',  ( 0.000000000000000000, 0.000000000000000000, 1.000000000000000000 ) ) ;
#73 = CARTESIAN_POINT ( 'NONE',  ( 4.399543625936864359E-17, 0.07900000000000000078, 0.3592499999999998472 ) ) ;
#74 = PRODUCT_DEFINITION_FORMATION_WITH_SPECIFIED_SOURCE ( 'ANY', '', #216, .NOT_KNOWN. ) ;
#75 = PERSON_AND_ORGANIZATION ( #182, #143 ) ;
#76 = SECURITY_CLASSIFICATION_LEVEL ( 'unclassified' ) ;
#77 = EDGE_LOOP ( 'NONE', ( #107, #156, #224, #176 ) ) ;
#78 = CC_DESIGN_APPROVAL ( #93, ( #74 ) ) ;
#79 = LINE ( 'NONE', #201, #233 ) ;
#80 = VERTEX_POINT ( 'NONE', #43 ) ;
#81 = APPROVAL_DATE_TIME ( #90, #93 ) ;
#82 = ORIENTED_EDGE ( 'NONE', *, *, #115, .T. ) ;
#83 = PLANE ( 'NONE',  #173 ) ;
#84 = VECTOR ( 'NONE', #87, 39.37007874015748143 ) ;
#85 = CARTESIAN_POINT ( 'NONE',  ( 0.000000000000000000, 0.000000000000000000, 0.000000000000000000 ) ) ;
#86 = AXIS2_PLACEMENT_3D ( 'NONE', #190, #165, #46 ) ;
#87 = DIRECTION ( 'NONE',  ( -0.000000000000000000, -1.000000000000000000, -0.000000000000000000 ) ) ;
#88 = ORIENTED_EDGE ( 'NONE', *, *, #163, .T. ) ;
#89 = FACE_OUTER_BOUND ( 'NONE', #153, .T. ) ;
#90 = DATE_AND_TIME ( #23, #148 ) ;
#91 = ORIENTED_EDGE ( 'NONE', *, *, #163, .F. ) ;
#92 = PERSON_AND_ORGANIZATION_ROLE ( 'design_owner' ) ;
#93 = APPROVAL ( #108, 'UNSPECIFIED' ) ;
#94 = EDGE_CURVE ( 'NONE', #80, #4, #106, .T. ) ;
#95 = ORIENTED_EDGE ( 'NONE', *, *, #123, .F. ) ;
#96 = LINE ( 'NONE', #31, #198 ) ;
#97 = CC_DESIGN_SECURITY_CLASSIFICATION ( #221, ( #74 ) ) ;
#98 = APPROVAL_PERSON_ORGANIZATION ( #214, #13, #112 ) ;
#99 = CARTESIAN_POINT ( 'NONE',  ( 4.399543625936864359E-17, 0.000000000000000000, 0.3592499999999998472 ) ) ;
#100 = AXIS2_PLACEMENT_3D ( 'NONE', #245, #222, #226 ) ;
#101 = DIRECTION ( 'NONE',  ( -0.000000000000000000, -1.000000000000000000, -0.000000000000000000 ) ) ;
#102 = DIRECTION ( 'NONE',  ( -0.000000000000000000, -1.000000000000000000, -0.000000000000000000 ) ) ;
#103 = EDGE_CURVE ( 'NONE', #203, #53, #175, .T. ) ;
#104 = DIRECTION ( 'NONE',  ( 0.000000000000000000, 0.000000000000000000, -1.000000000000000000 ) ) ;
#105 =( NAMED_UNIT ( * ) PLANE_ANGLE_UNIT ( ) SI_UNIT ( $, .RADIAN. ) );
#106 = CIRCLE ( 'NONE', #225, 0.3592499999999998472 ) ;
#107 = ORIENTED_EDGE ( 'NONE', *, *, #113, .F. ) ;
#108 = APPROVAL_STATUS ( 'not_yet_approved' ) ;
#109 = MANIFOLD_SOLID_BREP ( 'Boss-Extrude1', #191 ) ;
#110 = APPROVAL_ROLE ( '' ) ;
#111 = DATE_AND_TIME ( #160, #213 ) ;
#112 = APPROVAL_ROLE ( '' ) ;
#113 = EDGE_CURVE ( 'NONE', #248, #230, #202, .T. ) ;
#114 = CALENDAR_DATE ( 2025, 26, 8 ) ;
#115 = EDGE_CURVE ( 'NONE', #53, #29, #116, .T. ) ;
#116 = CIRCLE ( 'NONE', #154, 0.2325000000000000122 ) ;
#117 = DIRECTION ( 'NONE',  ( 0.000000000000000000, 1.000000000000000000, 0.000000000000000000 ) ) ;
#118 = DATE_AND_TIME ( #129, #134 ) ;
#119 = ORIENTED_EDGE ( 'NONE', *, *, #131, .F. ) ;
#120 = APPROVAL ( #136, 'UNSPECIFIED' ) ;
#121 = DIRECTION ( 'NONE',  ( 0.000000000000000000, 1.000000000000000000, 0.000000000000000000 ) ) ;
#122 = ADVANCED_FACE ( 'NONE', ( #89 ), #152, .T. ) ;
#123 = EDGE_CURVE ( 'NONE', #230, #248, #68, .T. ) ;
#124 = COORDINATED_UNIVERSAL_TIME_OFFSET ( 5, 0, .BEHIND. ) ;
#125 = FACE_BOUND ( 'NONE', #48, .T. ) ;
#126 = DIRECTION ( 'NONE',  ( -0.000000000000000000, -1.000000000000000000, -0.000000000000000000 ) ) ;
#127 = AXIS2_PLACEMENT_3D ( 'NONE', #42, #121, #243 ) ;
#128 = DIRECTION ( 'NONE',  ( 0.000000000000000000, 1.000000000000000000, 0.000000000000000000 ) ) ;
#129 = CALENDAR_DATE ( 2025, 26, 8 ) ;
#130 = CARTESIAN_POINT ( 'NONE',  ( 0.000000000000000000, 0.07900000000000000078, -0.2325000000000000122 ) ) ;
#131 = EDGE_CURVE ( 'NONE', #45, #29, #96, .T. ) ;
#132 = DIRECTION ( 'NONE',  ( -0.000000000000000000, -1.000000000000000000, -0.000000000000000000 ) ) ;
#133 = DIRECTION ( 'NONE',  ( 0.000000000000000000, 1.000000000000000000, 0.000000000000000000 ) ) ;
#134 = LOCAL_TIME ( 16, 5, 8.000000000000000000, #192 ) ;
#135 = FACE_BOUND ( 'NONE', #193, .T. ) ;
#136 = APPROVAL_STATUS ( 'not_yet_approved' ) ;
#137 = CIRCLE ( 'NONE', #127, 0.2325000000000000122 ) ;
#138 = ORIENTED_EDGE ( 'NONE', *, *, #141, .T. ) ;
#139 = EDGE_CURVE ( 'NONE', #248, #4, #79, .T. ) ;
#140 = CARTESIAN_POINT ( 'NONE',  ( 0.000000000000000000, 0.000000000000000000, 0.000000000000000000 ) ) ;
#141 = EDGE_CURVE ( 'NONE', #230, #80, #246, .T. ) ;
#142 = ADVANCED_FACE ( 'NONE', ( #183 ), #186, .F. ) ;
#143 = ORGANIZATION ( 'UNSPECIFIED', 'UNSPECIFIED', '' ) ;
#144 = CC_DESIGN_DATE_AND_TIME_ASSIGNMENT ( #65, #1, ( #7 ) ) ;
#145 = CARTESIAN_POINT ( 'NONE',  ( 0.000000000000000000, 0.07900000000000000078, 0.000000000000000000 ) ) ;
#146 = DIRECTION ( 'NONE',  ( 0.000000000000000000, 0.000000000000000000, 1.000000000000000000 ) ) ;
#147 = DIRECTION ( 'NONE',  ( 0.000000000000000000, 0.000000000000000000, 1.000000000000000000 ) ) ;
#148 = LOCAL_TIME ( 16, 5, 8.000000000000000000, #170 ) ;
#149 = CIRCLE ( 'NONE', #86, 0.2325000000000000122 ) ;
#150 =( LENGTH_UNIT ( ) NAMED_UNIT ( * ) SI_UNIT ( $, .METRE. ) );
#151 = ADVANCED_BREP_SHAPE_REPRESENTATION ( 'GSK-DIN1-T', ( #109, #210 ), #184 ) ;
#152 = CYLINDRICAL_SURFACE ( 'NONE', #239, 0.3592499999999998472 ) ;
#153 = EDGE_LOOP ( 'NONE', ( #40, #95, #138, #25 ) ) ;
#154 = AXIS2_PLACEMENT_3D ( 'NONE', #85, #188, #146 ) ;
#155 = APPLICATION_PROTOCOL_DEFINITION ( 'international standard', 'config_control_design', 1994, #178 ) ;
#156 = ORIENTED_EDGE ( 'NONE', *, *, #139, .T. ) ;
#157 = CC_DESIGN_PERSON_AND_ORGANIZATION_ASSIGNMENT ( #44, #234, ( #74 ) ) ;
#158 = CARTESIAN_POINT ( 'NONE',  ( 0.000000000000000000, 0.07900000000000000078, -0.2325000000000000122 ) ) ;
#159 = DIRECTION ( 'NONE',  ( 0.000000000000000000, -0.000000000000000000, 1.000000000000000000 ) ) ;
#160 = CALENDAR_DATE ( 2025, 26, 8 ) ;
#161 = PRODUCT_RELATED_PRODUCT_CATEGORY ( 'detail', '', ( #216 ) ) ;
#162 = CARTESIAN_POINT ( 'NONE',  ( 0.000000000000000000, 0.000000000000000000, -0.2325000000000000122 ) ) ;
#163 = EDGE_CURVE ( 'NONE', #45, #203, #149, .T. ) ;
#164 = ADVANCED_FACE ( 'NONE', ( #36, #135 ), #168, .T. ) ;
#165 = DIRECTION ( 'NONE',  ( 0.000000000000000000, 1.000000000000000000, 0.000000000000000000 ) ) ;
#166 = CARTESIAN_POINT ( 'NONE',  ( 0.000000000000000000, 0.07900000000000000078, 0.000000000000000000 ) ) ;
#167 = EDGE_LOOP ( 'NONE', ( #32, #6 ) ) ;
#168 = PLANE ( 'NONE',  #100 ) ;
#169 = CARTESIAN_POINT ( 'NONE',  ( 0.000000000000000000, 0.07900000000000000078, -0.3592499999999998472 ) ) ;
#170 = COORDINATED_UNIVERSAL_TIME_OFFSET ( 5, 0, .BEHIND. ) ;
#171 = CARTESIAN_POINT ( 'NONE',  ( 0.000000000000000000, 0.07900000000000000078, -0.3592499999999998472 ) ) ;
#172 = CALENDAR_DATE ( 2025, 26, 8 ) ;
#173 = AXIS2_PLACEMENT_3D ( 'NONE', #62, #64, #159 ) ;
#174 = PERSON_AND_ORGANIZATION ( #182, #143 ) ;
#175 = LINE ( 'NONE', #158, #2 ) ;
#176 = ORIENTED_EDGE ( 'NONE', *, *, #141, .F. ) ;
#177 = PERSON_AND_ORGANIZATION_ROLE ( 'classification_officer' ) ;
#178 = APPLICATION_CONTEXT ( 'configuration controlled 3d designs of mechanical parts and assemblies' ) ;
#179 = ORIENTED_EDGE ( 'NONE', *, *, #123, .T. ) ;
#180 = AXIS2_PLACEMENT_3D ( 'NONE', #55, #133, #147 ) ;
#181 = PERSON_AND_ORGANIZATION ( #182, #143 ) ;
#182 = PERSON ( 'UNSPECIFIED', 'UNSPECIFIED', 'UNSPECIFIED', ('UNSPECIFIED'), ('UNSPECIFIED'), ('UNSPECIFIED') ) ;
#183 = FACE_OUTER_BOUND ( 'NONE', #19, .T. ) ;
#184 =( GEOMETRIC_REPRESENTATION_CONTEXT ( 3 ) GLOBAL_UNCERTAINTY_ASSIGNED_CONTEXT ( ( #3 ) ) GLOBAL_UNIT_ASSIGNED_CONTEXT ( ( #211, #105, #56 ) ) REPRESENTATION_CONTEXT ( 'NONE', 'WORKASPACE' ) );
#185 = SHAPE_DEFINITION_REPRESENTATION ( #194, #151 ) ;
#186 = CYLINDRICAL_SURFACE ( 'NONE', #59, 0.2325000000000000122 ) ;
#187 = EDGE_CURVE ( 'NONE', #4, #80, #238, .T. ) ;
#188 = DIRECTION ( 'NONE',  ( 0.000000000000000000, 1.000000000000000000, 0.000000000000000000 ) ) ;
#189 = ORIENTED_EDGE ( 'NONE', *, *, #24, .F. ) ;
#190 = CARTESIAN_POINT ( 'NONE',  ( 0.000000000000000000, 0.07900000000000000078, 0.000000000000000000 ) ) ;
#191 = CLOSED_SHELL ( 'NONE', ( #237, #220, #164, #60, #122, #142 ) ) ;
#192 = COORDINATED_UNIVERSAL_TIME_OFFSET ( 5, 0, .BEHIND. ) ;
#193 = EDGE_LOOP ( 'NONE', ( #189, #91 ) ) ;
#194 = PRODUCT_DEFINITION_SHAPE ( 'NONE', 'NONE',  #7 ) ;
#195 = MECHANICAL_CONTEXT ( 'NONE', #231, 'mechanical' ) ;
#196 = ORIENTED_EDGE ( 'NONE', *, *, #113, .T. ) ;
#197 = PERSON_AND_ORGANIZATION ( #182, #143 ) ;
#198 = VECTOR ( 'NONE', #51, 39.37007874015748143 ) ;
#199 = ORIENTED_EDGE ( 'NONE', *, *, #24, .T. ) ;
#200 = CARTESIAN_POINT ( 'NONE',  ( 0.000000000000000000, 0.07900000000000000078, 0.000000000000000000 ) ) ;
#201 = CARTESIAN_POINT ( 'NONE',  ( 4.399543625936864359E-17, 0.07900000000000000078, 0.3592499999999998472 ) ) ;
#202 = CIRCLE ( 'NONE', #39, 0.3592499999999998472 ) ;
#203 = VERTEX_POINT ( 'NONE', #130 ) ;
#204 = CC_DESIGN_PERSON_AND_ORGANIZATION_ASSIGNMENT ( #20, #252, ( #74 ) ) ;
#205 = DIRECTION ( 'NONE',  ( 0.000000000000000000, 0.000000000000000000, 1.000000000000000000 ) ) ;
#206 = DIRECTION ( 'NONE',  ( 0.000000000000000000, 0.000000000000000000, -1.000000000000000000 ) ) ;
#207 = LOCAL_TIME ( 16, 5, 8.000000000000000000, #47 ) ;
#208 = DIMENSIONAL_EXPONENTS ( 1.000000000000000000, 0.000000000000000000, 0.000000000000000000, 0.000000000000000000, 0.000000000000000000, 0.000000000000000000, 0.000000000000000000 ) ;
#209 = DIRECTION ( 'NONE',  ( 0.000000000000000000, 0.000000000000000000, 1.000000000000000000 ) ) ;
#210 = AXIS2_PLACEMENT_3D ( 'NONE', #34, #209, #35 ) ;
#211 =( CONVERSION_BASED_UNIT ( 'INCH', #244 ) LENGTH_UNIT ( ) NAMED_UNIT ( #208 ) );
#212 = APPROVAL_ROLE ( '' ) ;
#213 = LOCAL_TIME ( 16, 5, 8.000000000000000000, #16 ) ;
#214 = PERSON_AND_ORGANIZATION ( #182, #143 ) ;
#215 = FACE_OUTER_BOUND ( 'NONE', #77, .T. ) ;
#216 = PRODUCT ( 'GSK-DIN1-T', 'GSK-DIN1-T', '', ( #195 ) ) ;
#217 = CC_DESIGN_DATE_AND_TIME_ASSIGNMENT ( #223, #38, ( #221 ) ) ;
#218 = ORIENTED_EDGE ( 'NONE', *, *, #228, .T. ) ;
#219 = DIRECTION ( 'NONE',  ( -0.000000000000000000, -1.000000000000000000, -0.000000000000000000 ) ) ;
#220 = ADVANCED_FACE ( 'NONE', ( #215 ), #17, .T. ) ;
#221 = SECURITY_CLASSIFICATION ( '', '', #76 ) ;
#222 = DIRECTION ( 'NONE',  ( 0.000000000000000000, 1.000000000000000000, 0.000000000000000000 ) ) ;
#223 = DATE_AND_TIME ( #114, #207 ) ;
#224 = ORIENTED_EDGE ( 'NONE', *, *, #187, .T. ) ;
#225 = AXIS2_PLACEMENT_3D ( 'NONE', #140, #117, #240 ) ;
#226 = DIRECTION ( 'NONE',  ( 0.000000000000000000, -0.000000000000000000, 1.000000000000000000 ) ) ;
#227 = CARTESIAN_POINT ( 'NONE',  ( 0.000000000000000000, 0.07900000000000000078, 0.000000000000000000 ) ) ;
#228 = EDGE_CURVE ( 'NONE', #29, #53, #37, .T. ) ;
#229 = PERSON_AND_ORGANIZATION ( #182, #143 ) ;
#230 = VERTEX_POINT ( 'NONE', #171 ) ;
#231 = APPLICATION_CONTEXT ( 'configuration controlled 3d designs of mechanical parts and assemblies' ) ;
#232 = CYLINDRICAL_SURFACE ( 'NONE', #69, 0.2325000000000000122 ) ;
#233 = VECTOR ( 'NONE', #49, 39.37007874015748143 ) ;
#234 = PERSON_AND_ORGANIZATION_ROLE ( 'creator' ) ;
#235 = ORIENTED_EDGE ( 'NONE', *, *, #228, .F. ) ;
#236 = PERSON_AND_ORGANIZATION_ROLE ( 'creator' ) ;
#237 = ADVANCED_FACE ( 'NONE', ( #61 ), #232, .F. ) ;
#238 = CIRCLE ( 'NONE', #180, 0.3592499999999998472 ) ;
#239 = AXIS2_PLACEMENT_3D ( 'NONE', #145, #102, #27 ) ;
#240 = DIRECTION ( 'NONE',  ( 0.000000000000000000, 0.000000000000000000, 1.000000000000000000 ) ) ;
#241 = CC_DESIGN_APPROVAL ( #120, ( #221 ) ) ;
#242 = AXIS2_PLACEMENT_3D ( 'NONE', #14, #54, #72 ) ;
#243 = DIRECTION ( 'NONE',  ( 0.000000000000000000, 0.000000000000000000, 1.000000000000000000 ) ) ;
#244 = LENGTH_MEASURE_WITH_UNIT ( LENGTH_MEASURE( 0.02539999999999999897 ), #150 );
#245 = CARTESIAN_POINT ( 'NONE',  ( 0.000000000000000000, 0.07900000000000000078, 0.000000000000000000 ) ) ;
#246 = LINE ( 'NONE', #169, #84 ) ;
#247 = APPROVAL_DATE_TIME ( #111, #120 ) ;
#248 = VERTEX_POINT ( 'NONE', #73 ) ;
#249 = CC_DESIGN_PERSON_AND_ORGANIZATION_ASSIGNMENT ( #197, #92, ( #216 ) ) ;
#250 = FACE_OUTER_BOUND ( 'NONE', #167, .T. ) ;
#251 = CC_DESIGN_PERSON_AND_ORGANIZATION_ASSIGNMENT ( #181, #236, ( #7 ) ) ;
#252 = PERSON_AND_ORGANIZATION_ROLE ( 'design_supplier' ) ;
ENDSEC;
END-ISO-10303-21;
