ISO-10303-21;
HEADER;
FILE_DESCRIPTION (( 'STEP AP203' ),
    '1' );
FILE_NAME ('GSK-DIN11-K.STEP',
    '2025-08-27T12:21:47',
    ( '' ),
    ( '' ),
    'SwSTEP 2.0',
    'SolidWorks 2018',
    '' );
FILE_SCHEMA (( 'CONFIG_CONTROL_DESIGN' ));
ENDSEC;

DATA;
#1 = PERSON_AND_ORGANIZATION_ROLE ( 'creator' ) ;
#2 = AXIS2_PLACEMENT_3D ( 'NONE', #115, #233, #38 ) ;
#3 = FACE_BOUND ( 'NONE', #242, .T. ) ;
#4 = EDGE_CURVE ( 'NONE', #252, #135, #10, .T. ) ;
#5 = ORIENTED_EDGE ( 'NONE', *, *, #202, .F. ) ;
#6 = COORDINATED_UNIVERSAL_TIME_OFFSET ( 5, 0, .BEHIND. ) ;
#7 = FACE_OUTER_BOUND ( 'NONE', #144, .T. ) ;
#8 = AXIS2_PLACEMENT_3D ( 'NONE', #42, #168, #167 ) ;
#9 = DIRECTION ( 'NONE',  ( 0.000000000000000000, 0.000000000000000000, -1.000000000000000000 ) ) ;
#10 = LINE ( 'NONE', #180, #88 ) ;
#11 = CARTESIAN_POINT ( 'NONE',  ( 0.000000000000000000, 0.000000000000000000, -0.2755000000000000782 ) ) ;
#12 = CARTESIAN_POINT ( 'NONE',  ( 0.000000000000000000, 0.000000000000000000, 0.000000000000000000 ) ) ;
#13 = DIRECTION ( 'NONE',  ( 0.000000000000000000, 0.000000000000000000, -1.000000000000000000 ) ) ;
#14 = CARTESIAN_POINT ( 'NONE',  ( 0.000000000000000000, 0.000000000000000000, 0.000000000000000000 ) ) ;
#15 = CARTESIAN_POINT ( 'NONE',  ( 3.373901931650958627E-17, 0.07900000000000000078, 0.2755000000000000782 ) ) ;
#16 = CC_DESIGN_PERSON_AND_ORGANIZATION_ASSIGNMENT ( #222, #63, ( #213 ) ) ;
#17 =( NAMED_UNIT ( * ) PLANE_ANGLE_UNIT ( ) SI_UNIT ( $, .RADIAN. ) );
#18 = PERSON_AND_ORGANIZATION_ROLE ( 'design_owner' ) ;
#19 = DIRECTION ( 'NONE',  ( 1.000000000000000000, 0.000000000000000000, 0.000000000000000000 ) ) ;
#20 = SHAPE_DEFINITION_REPRESENTATION ( #187, #139 ) ;
#21 = AXIS2_PLACEMENT_3D ( 'NONE', #164, #69, #204 ) ;
#22 = ORIENTED_EDGE ( 'NONE', *, *, #240, .T. ) ;
#23 = CLOSED_SHELL ( 'NONE', ( #221, #45, #150, #61, #58, #46 ) ) ;
#24 = APPROVAL_STATUS ( 'not_yet_approved' ) ;
#25 = APPROVAL_ROLE ( '' ) ;
#26 = LOCAL_TIME ( 8, 21, 47.00000000000000000, #125 ) ;
#27 = EDGE_LOOP ( 'NONE', ( #22, #118 ) ) ;
#28 = ORIENTED_EDGE ( 'NONE', *, *, #238, .T. ) ;
#29 = CC_DESIGN_DATE_AND_TIME_ASSIGNMENT ( #122, #117, ( #213 ) ) ;
#30 = FACE_OUTER_BOUND ( 'NONE', #215, .T. ) ;
#31 = CARTESIAN_POINT ( 'NONE',  ( 2.277843046414077160E-17, 0.07900000000000000078, 0.1859999999999999987 ) ) ;
#32 = CARTESIAN_POINT ( 'NONE',  ( 0.000000000000000000, 0.000000000000000000, -0.1859999999999999987 ) ) ;
#33 = AXIS2_PLACEMENT_3D ( 'NONE', #228, #207, #9 ) ;
#34 = ORIENTED_EDGE ( 'NONE', *, *, #84, .F. ) ;
#35 = COORDINATED_UNIVERSAL_TIME_OFFSET ( 5, 0, .BEHIND. ) ;
#36 = AXIS2_PLACEMENT_3D ( 'NONE', #56, #170, #75 ) ;
#37 = DIRECTION ( 'NONE',  ( 0.000000000000000000, 0.000000000000000000, 1.000000000000000000 ) ) ;
#38 = DIRECTION ( 'NONE',  ( 0.000000000000000000, 0.000000000000000000, 1.000000000000000000 ) ) ;
#39 = CYLINDRICAL_SURFACE ( 'NONE', #197, 0.2755000000000000782 ) ;
#40 = CARTESIAN_POINT ( 'NONE',  ( 0.000000000000000000, 0.000000000000000000, 0.000000000000000000 ) ) ;
#41 = EDGE_CURVE ( 'NONE', #44, #93, #155, .T. ) ;
#42 = CARTESIAN_POINT ( 'NONE',  ( 0.000000000000000000, 0.000000000000000000, 0.000000000000000000 ) ) ;
#43 = DATE_AND_TIME ( #158, #161 ) ;
#44 = VERTEX_POINT ( 'NONE', #107 ) ;
#45 = ADVANCED_FACE ( 'NONE', ( #109 ), #78, .T. ) ;
#46 = ADVANCED_FACE ( 'NONE', ( #62 ), #201, .F. ) ;
#47 = AXIS2_PLACEMENT_3D ( 'NONE', #95, #53, #211 ) ;
#48 = VERTEX_POINT ( 'NONE', #208 ) ;
#49 = APPROVAL_PERSON_ORGANIZATION ( #142, #243, #191 ) ;
#50 = AXIS2_PLACEMENT_3D ( 'NONE', #146, #55, #232 ) ;
#51 = ORIENTED_EDGE ( 'NONE', *, *, #133, .T. ) ;
#52 = PRODUCT ( 'GSK-DIN11-K', 'GSK-DIN11-K', '', ( #128 ) ) ;
#53 = DIRECTION ( 'NONE',  ( 0.000000000000000000, 1.000000000000000000, 0.000000000000000000 ) ) ;
#54 = ORIENTED_EDGE ( 'NONE', *, *, #238, .F. ) ;
#55 = DIRECTION ( 'NONE',  ( 0.000000000000000000, 1.000000000000000000, 0.000000000000000000 ) ) ;
#56 = CARTESIAN_POINT ( 'NONE',  ( 0.000000000000000000, 0.07900000000000000078, 0.000000000000000000 ) ) ;
#57 = DIRECTION ( 'NONE',  ( -0.000000000000000000, -1.000000000000000000, -0.000000000000000000 ) ) ;
#58 = ADVANCED_FACE ( 'NONE', ( #59 ), #39, .T. ) ;
#59 = FACE_OUTER_BOUND ( 'NONE', #100, .T. ) ;
#60 =( GEOMETRIC_REPRESENTATION_CONTEXT ( 3 ) GLOBAL_UNCERTAINTY_ASSIGNED_CONTEXT ( ( #130 ) ) GLOBAL_UNIT_ASSIGNED_CONTEXT ( ( #114, #17, #212 ) ) REPRESENTATION_CONTEXT ( 'NONE', 'WORKASPACE' ) );
#61 = ADVANCED_FACE ( 'NONE', ( #7, #239 ), #165, .F. ) ;
#62 = FACE_OUTER_BOUND ( 'NONE', #85, .T. ) ;
#63 = PERSON_AND_ORGANIZATION_ROLE ( 'creator' ) ;
#64 = PERSON_AND_ORGANIZATION ( #71, #163 ) ;
#65 = VECTOR ( 'NONE', #57, 39.37007874015748143 ) ;
#66 = CC_DESIGN_APPROVAL ( #136, ( #90 ) ) ;
#67 = PERSON_AND_ORGANIZATION ( #71, #163 ) ;
#68 = CARTESIAN_POINT ( 'NONE',  ( 0.000000000000000000, 0.07900000000000000078, -0.2755000000000000782 ) ) ;
#69 = DIRECTION ( 'NONE',  ( 0.000000000000000000, 1.000000000000000000, 0.000000000000000000 ) ) ;
#70 = CC_DESIGN_PERSON_AND_ORGANIZATION_ASSIGNMENT ( #224, #235, ( #101 ) ) ;
#71 = PERSON ( 'UNSPECIFIED', 'UNSPECIFIED', 'UNSPECIFIED', ('UNSPECIFIED'), ('UNSPECIFIED'), ('UNSPECIFIED') ) ;
#72 = COORDINATED_UNIVERSAL_TIME_OFFSET ( 5, 0, .BEHIND. ) ;
#73 = EDGE_LOOP ( 'NONE', ( #244, #183 ) ) ;
#74 = DIRECTION ( 'NONE',  ( -0.000000000000000000, -1.000000000000000000, -0.000000000000000000 ) ) ;
#75 = DIRECTION ( 'NONE',  ( 0.000000000000000000, 0.000000000000000000, -1.000000000000000000 ) ) ;
#76 = DIRECTION ( 'NONE',  ( 0.000000000000000000, -0.000000000000000000, 1.000000000000000000 ) ) ;
#77 = APPLICATION_PROTOCOL_DEFINITION ( 'international standard', 'config_control_design', 1994, #147 ) ;
#78 = CYLINDRICAL_SURFACE ( 'NONE', #199, 0.2755000000000000782 ) ;
#79 = DIRECTION ( 'NONE',  ( 0.000000000000000000, 1.000000000000000000, 0.000000000000000000 ) ) ;
#80 = APPROVAL_DATE_TIME ( #145, #243 ) ;
#81 = PERSON_AND_ORGANIZATION_ROLE ( 'design_supplier' ) ;
#82 = CALENDAR_DATE ( 2025, 27, 8 ) ;
#83 = VERTEX_POINT ( 'NONE', #31 ) ;
#84 = EDGE_CURVE ( 'NONE', #93, #131, #159, .T. ) ;
#85 = EDGE_LOOP ( 'NONE', ( #175, #189, #206, #210 ) ) ;
#86 = ORIENTED_EDGE ( 'NONE', *, *, #133, .F. ) ;
#87 = CC_DESIGN_PERSON_AND_ORGANIZATION_ASSIGNMENT ( #64, #18, ( #52 ) ) ;
#88 = VECTOR ( 'NONE', #181, 39.37007874015748143 ) ;
#89 = DIRECTION ( 'NONE',  ( -0.000000000000000000, -1.000000000000000000, -0.000000000000000000 ) ) ;
#90 = PRODUCT_DEFINITION_FORMATION_WITH_SPECIFIED_SOURCE ( 'ANY', '', #52, .NOT_KNOWN. ) ;
#91 = CARTESIAN_POINT ( 'NONE',  ( 2.277843046414077160E-17, 0.000000000000000000, 0.1859999999999999987 ) ) ;
#92 = DIRECTION ( 'NONE',  ( 0.000000000000000000, 0.000000000000000000, 1.000000000000000000 ) ) ;
#93 = VERTEX_POINT ( 'NONE', #68 ) ;
#94 = DIRECTION ( 'NONE',  ( 0.000000000000000000, -0.000000000000000000, 1.000000000000000000 ) ) ;
#95 = CARTESIAN_POINT ( 'NONE',  ( 0.000000000000000000, 0.07900000000000000078, 0.000000000000000000 ) ) ;
#96 = CARTESIAN_POINT ( 'NONE',  ( 2.277843046414077160E-17, 0.07900000000000000078, 0.1859999999999999987 ) ) ;
#97 = VERTEX_POINT ( 'NONE', #91 ) ;
#98 = ORIENTED_EDGE ( 'NONE', *, *, #220, .T. ) ;
#99 = DIRECTION ( 'NONE',  ( 0.000000000000000000, 0.000000000000000000, 1.000000000000000000 ) ) ;
#100 = EDGE_LOOP ( 'NONE', ( #200, #171, #247, #28 ) ) ;
#101 = SECURITY_CLASSIFICATION ( '', '', #219 ) ;
#102 = APPROVAL_STATUS ( 'not_yet_approved' ) ;
#103 = CC_DESIGN_DATE_AND_TIME_ASSIGNMENT ( #43, #134, ( #101 ) ) ;
#104 = CIRCLE ( 'NONE', #2, 0.1859999999999999987 ) ;
#105 = ORIENTED_EDGE ( 'NONE', *, *, #4, .F. ) ;
#106 = LENGTH_MEASURE_WITH_UNIT ( LENGTH_MEASURE( 0.02539999999999999897 ), #231 );
#107 = CARTESIAN_POINT ( 'NONE',  ( 3.373901931650958627E-17, 0.07900000000000000078, 0.2755000000000000782 ) ) ;
#108 = DIRECTION ( 'NONE',  ( -0.000000000000000000, -1.000000000000000000, -0.000000000000000000 ) ) ;
#109 = FACE_OUTER_BOUND ( 'NONE', #157, .T. ) ;
#110 = DIRECTION ( 'NONE',  ( 0.000000000000000000, 0.000000000000000000, 1.000000000000000000 ) ) ;
#111 = APPROVAL ( #24, 'UNSPECIFIED' ) ;
#112 = DATE_AND_TIME ( #120, #172 ) ;
#113 = DIRECTION ( 'NONE',  ( 0.000000000000000000, 1.000000000000000000, 0.000000000000000000 ) ) ;
#114 =( CONVERSION_BASED_UNIT ( 'INCH', #106 ) LENGTH_UNIT ( ) NAMED_UNIT ( #194 ) );
#115 = CARTESIAN_POINT ( 'NONE',  ( 0.000000000000000000, 0.000000000000000000, 0.000000000000000000 ) ) ;
#116 = FACE_OUTER_BOUND ( 'NONE', #27, .T. ) ;
#117 = DATE_TIME_ROLE ( 'creation_date' ) ;
#118 = ORIENTED_EDGE ( 'NONE', *, *, #41, .T. ) ;
#119 = EDGE_CURVE ( 'NONE', #97, #135, #227, .T. ) ;
#120 = CALENDAR_DATE ( 2025, 27, 8 ) ;
#121 = PRODUCT_RELATED_PRODUCT_CATEGORY ( 'detail', '', ( #52 ) ) ;
#122 = DATE_AND_TIME ( #209, #151 ) ;
#123 = CIRCLE ( 'NONE', #8, 0.2755000000000000782 ) ;
#124 = DESIGN_CONTEXT ( 'detailed design', #147, 'design' ) ;
#125 = COORDINATED_UNIVERSAL_TIME_OFFSET ( 5, 0, .BEHIND. ) ;
#126 = APPLICATION_CONTEXT ( 'configuration controlled 3d designs of mechanical parts and assemblies' ) ;
#127 = CC_DESIGN_SECURITY_CLASSIFICATION ( #101, ( #90 ) ) ;
#128 = MECHANICAL_CONTEXT ( 'NONE', #126, 'mechanical' ) ;
#129 = VECTOR ( 'NONE', #74, 39.37007874015748143 ) ;
#130 = UNCERTAINTY_MEASURE_WITH_UNIT (LENGTH_MEASURE( 1.000000000000000082E-05 ), #114, 'distance_accuracy_value', 'NONE');
#131 = VERTEX_POINT ( 'NONE', #11 ) ;
#132 = PERSON_AND_ORGANIZATION ( #71, #163 ) ;
#133 = EDGE_CURVE ( 'NONE', #252, #83, #152, .T. ) ;
#134 = DATE_TIME_ROLE ( 'classification_date' ) ;
#135 = VERTEX_POINT ( 'NONE', #32 ) ;
#136 = APPROVAL ( #102, 'UNSPECIFIED' ) ;
#137 = ORIENTED_EDGE ( 'NONE', *, *, #153, .T. ) ;
#138 = PERSON_AND_ORGANIZATION ( #71, #163 ) ;
#139 = ADVANCED_BREP_SHAPE_REPRESENTATION ( 'GSK-DIN11-K', ( #154, #225 ), #60 ) ;
#140 = ORIENTED_EDGE ( 'NONE', *, *, #153, .F. ) ;
#141 = CARTESIAN_POINT ( 'NONE',  ( 0.000000000000000000, 0.07900000000000000078, 0.000000000000000000 ) ) ;
#142 = PERSON_AND_ORGANIZATION ( #71, #163 ) ;
#143 = DIRECTION ( 'NONE',  ( 0.000000000000000000, 1.000000000000000000, 0.000000000000000000 ) ) ;
#144 = EDGE_LOOP ( 'NONE', ( #54, #140 ) ) ;
#145 = DATE_AND_TIME ( #82, #26 ) ;
#146 = CARTESIAN_POINT ( 'NONE',  ( 0.000000000000000000, 0.07900000000000000078, 0.000000000000000000 ) ) ;
#147 = APPLICATION_CONTEXT ( 'configuration controlled 3d designs of mechanical parts and assemblies' ) ;
#148 = CARTESIAN_POINT ( 'NONE',  ( 0.000000000000000000, 0.07900000000000000078, 0.000000000000000000 ) ) ;
#149 = CIRCLE ( 'NONE', #251, 0.1859999999999999987 ) ;
#150 = ADVANCED_FACE ( 'NONE', ( #116, #3 ), #188, .T. ) ;
#151 = LOCAL_TIME ( 8, 21, 47.00000000000000000, #6 ) ;
#152 = CIRCLE ( 'NONE', #47, 0.1859999999999999987 ) ;
#153 = EDGE_CURVE ( 'NONE', #48, #131, #179, .T. ) ;
#154 = MANIFOLD_SOLID_BREP ( 'Boss-Extrude1', #23 ) ;
#155 = CIRCLE ( 'NONE', #21, 0.2755000000000000782 ) ;
#156 = EDGE_CURVE ( 'NONE', #44, #48, #196, .T. ) ;
#157 = EDGE_LOOP ( 'NONE', ( #184, #218, #137, #34 ) ) ;
#158 = CALENDAR_DATE ( 2025, 27, 8 ) ;
#159 = LINE ( 'NONE', #229, #250 ) ;
#160 = DIRECTION ( 'NONE',  ( 0.000000000000000000, 1.000000000000000000, 0.000000000000000000 ) ) ;
#161 = LOCAL_TIME ( 8, 21, 47.00000000000000000, #35 ) ;
#162 = AXIS2_PLACEMENT_3D ( 'NONE', #214, #113, #76 ) ;
#163 = ORGANIZATION ( 'UNSPECIFIED', 'UNSPECIFIED', '' ) ;
#164 = CARTESIAN_POINT ( 'NONE',  ( 0.000000000000000000, 0.07900000000000000078, 0.000000000000000000 ) ) ;
#165 = PLANE ( 'NONE',  #177 ) ;
#166 = APPROVAL_PERSON_ORGANIZATION ( #138, #136, #195 ) ;
#167 = DIRECTION ( 'NONE',  ( 0.000000000000000000, 0.000000000000000000, 1.000000000000000000 ) ) ;
#168 = DIRECTION ( 'NONE',  ( 0.000000000000000000, 1.000000000000000000, 0.000000000000000000 ) ) ;
#169 = APPROVAL_DATE_TIME ( #176, #136 ) ;
#170 = DIRECTION ( 'NONE',  ( -0.000000000000000000, -1.000000000000000000, -0.000000000000000000 ) ) ;
#171 = ORIENTED_EDGE ( 'NONE', *, *, #240, .F. ) ;
#172 = LOCAL_TIME ( 8, 21, 47.00000000000000000, #178 ) ;
#173 = CC_DESIGN_APPROVAL ( #243, ( #213 ) ) ;
#174 = APPROVAL_PERSON_ORGANIZATION ( #230, #111, #25 ) ;
#175 = ORIENTED_EDGE ( 'NONE', *, *, #220, .F. ) ;
#176 = DATE_AND_TIME ( #216, #237 ) ;
#177 = AXIS2_PLACEMENT_3D ( 'NONE', #203, #160, #94 ) ;
#178 = COORDINATED_UNIVERSAL_TIME_OFFSET ( 5, 0, .BEHIND. ) ;
#179 = CIRCLE ( 'NONE', #223, 0.2755000000000000782 ) ;
#180 = CARTESIAN_POINT ( 'NONE',  ( 0.000000000000000000, 0.07900000000000000078, -0.1859999999999999987 ) ) ;
#181 = DIRECTION ( 'NONE',  ( -0.000000000000000000, -1.000000000000000000, -0.000000000000000000 ) ) ;
#182 = DIRECTION ( 'NONE',  ( 0.000000000000000000, 0.000000000000000000, -1.000000000000000000 ) ) ;
#183 = ORIENTED_EDGE ( 'NONE', *, *, #119, .T. ) ;
#184 = ORIENTED_EDGE ( 'NONE', *, *, #41, .F. ) ;
#185 = DIRECTION ( 'NONE',  ( -0.000000000000000000, -1.000000000000000000, -0.000000000000000000 ) ) ;
#186 = CC_DESIGN_PERSON_AND_ORGANIZATION_ASSIGNMENT ( #67, #1, ( #90 ) ) ;
#187 = PRODUCT_DEFINITION_SHAPE ( 'NONE', 'NONE',  #213 ) ;
#188 = PLANE ( 'NONE',  #162 ) ;
#189 = ORIENTED_EDGE ( 'NONE', *, *, #202, .T. ) ;
#190 = CARTESIAN_POINT ( 'NONE',  ( 0.000000000000000000, 0.07900000000000000078, -0.1859999999999999987 ) ) ;
#191 = APPROVAL_ROLE ( '' ) ;
#192 = ORIENTED_EDGE ( 'NONE', *, *, #245, .F. ) ;
#193 = LINE ( 'NONE', #96, #65 ) ;
#194 = DIMENSIONAL_EXPONENTS ( 1.000000000000000000, 0.000000000000000000, 0.000000000000000000, 0.000000000000000000, 0.000000000000000000, 0.000000000000000000, 0.000000000000000000 ) ;
#195 = APPROVAL_ROLE ( '' ) ;
#196 = LINE ( 'NONE', #15, #129 ) ;
#197 = AXIS2_PLACEMENT_3D ( 'NONE', #141, #185, #182 ) ;
#198 = CYLINDRICAL_SURFACE ( 'NONE', #36, 0.1859999999999999987 ) ;
#199 = AXIS2_PLACEMENT_3D ( 'NONE', #226, #89, #13 ) ;
#200 = ORIENTED_EDGE ( 'NONE', *, *, #156, .F. ) ;
#201 = CYLINDRICAL_SURFACE ( 'NONE', #33, 0.1859999999999999987 ) ;
#202 = EDGE_CURVE ( 'NONE', #83, #252, #149, .T. ) ;
#203 = CARTESIAN_POINT ( 'NONE',  ( 0.000000000000000000, 0.000000000000000000, 0.000000000000000000 ) ) ;
#204 = DIRECTION ( 'NONE',  ( 0.000000000000000000, 0.000000000000000000, 1.000000000000000000 ) ) ;
#205 = AXIS2_PLACEMENT_3D ( 'NONE', #12, #143, #92 ) ;
#206 = ORIENTED_EDGE ( 'NONE', *, *, #4, .T. ) ;
#207 = DIRECTION ( 'NONE',  ( -0.000000000000000000, -1.000000000000000000, -0.000000000000000000 ) ) ;
#208 = CARTESIAN_POINT ( 'NONE',  ( 3.373901931650958627E-17, 0.000000000000000000, 0.2755000000000000782 ) ) ;
#209 = CALENDAR_DATE ( 2025, 27, 8 ) ;
#210 = ORIENTED_EDGE ( 'NONE', *, *, #119, .F. ) ;
#211 = DIRECTION ( 'NONE',  ( 0.000000000000000000, 0.000000000000000000, 1.000000000000000000 ) ) ;
#212 =( NAMED_UNIT ( * ) SI_UNIT ( $, .STERADIAN. ) SOLID_ANGLE_UNIT ( ) );
#213 = PRODUCT_DEFINITION ( 'UNKNOWN', '', #90, #124 ) ;
#214 = CARTESIAN_POINT ( 'NONE',  ( 0.000000000000000000, 0.07900000000000000078, 0.000000000000000000 ) ) ;
#215 = EDGE_LOOP ( 'NONE', ( #51, #98, #192, #105 ) ) ;
#216 = CALENDAR_DATE ( 2025, 27, 8 ) ;
#217 = CC_DESIGN_APPROVAL ( #111, ( #101 ) ) ;
#218 = ORIENTED_EDGE ( 'NONE', *, *, #156, .T. ) ;
#219 = SECURITY_CLASSIFICATION_LEVEL ( 'unclassified' ) ;
#220 = EDGE_CURVE ( 'NONE', #83, #97, #193, .T. ) ;
#221 = ADVANCED_FACE ( 'NONE', ( #30 ), #198, .F. ) ;
#222 = PERSON_AND_ORGANIZATION ( #71, #163 ) ;
#223 = AXIS2_PLACEMENT_3D ( 'NONE', #40, #246, #99 ) ;
#224 = PERSON_AND_ORGANIZATION ( #71, #163 ) ;
#225 = AXIS2_PLACEMENT_3D ( 'NONE', #14, #37, #19 ) ;
#226 = CARTESIAN_POINT ( 'NONE',  ( 0.000000000000000000, 0.07900000000000000078, 0.000000000000000000 ) ) ;
#227 = CIRCLE ( 'NONE', #205, 0.1859999999999999987 ) ;
#228 = CARTESIAN_POINT ( 'NONE',  ( 0.000000000000000000, 0.07900000000000000078, 0.000000000000000000 ) ) ;
#229 = CARTESIAN_POINT ( 'NONE',  ( 0.000000000000000000, 0.07900000000000000078, -0.2755000000000000782 ) ) ;
#230 = PERSON_AND_ORGANIZATION ( #71, #163 ) ;
#231 =( LENGTH_UNIT ( ) NAMED_UNIT ( * ) SI_UNIT ( $, .METRE. ) );
#232 = DIRECTION ( 'NONE',  ( 0.000000000000000000, 0.000000000000000000, 1.000000000000000000 ) ) ;
#233 = DIRECTION ( 'NONE',  ( 0.000000000000000000, 1.000000000000000000, 0.000000000000000000 ) ) ;
#234 = CIRCLE ( 'NONE', #50, 0.2755000000000000782 ) ;
#235 = PERSON_AND_ORGANIZATION_ROLE ( 'classification_officer' ) ;
#236 = CC_DESIGN_PERSON_AND_ORGANIZATION_ASSIGNMENT ( #132, #81, ( #90 ) ) ;
#237 = LOCAL_TIME ( 8, 21, 47.00000000000000000, #72 ) ;
#238 = EDGE_CURVE ( 'NONE', #131, #48, #123, .T. ) ;
#239 = FACE_BOUND ( 'NONE', #73, .T. ) ;
#240 = EDGE_CURVE ( 'NONE', #93, #44, #234, .T. ) ;
#241 = APPROVAL_DATE_TIME ( #112, #111 ) ;
#242 = EDGE_LOOP ( 'NONE', ( #86, #5 ) ) ;
#243 = APPROVAL ( #249, 'UNSPECIFIED' ) ;
#244 = ORIENTED_EDGE ( 'NONE', *, *, #245, .T. ) ;
#245 = EDGE_CURVE ( 'NONE', #135, #97, #104, .T. ) ;
#246 = DIRECTION ( 'NONE',  ( 0.000000000000000000, 1.000000000000000000, 0.000000000000000000 ) ) ;
#247 = ORIENTED_EDGE ( 'NONE', *, *, #84, .T. ) ;
#248 = APPLICATION_PROTOCOL_DEFINITION ( 'international standard', 'config_control_design', 1994, #126 ) ;
#249 = APPROVAL_STATUS ( 'not_yet_approved' ) ;
#250 = VECTOR ( 'NONE', #108, 39.37007874015748143 ) ;
#251 = AXIS2_PLACEMENT_3D ( 'NONE', #148, #79, #110 ) ;
#252 = VERTEX_POINT ( 'NONE', #190 ) ;
ENDSEC;
END-ISO-10303-21;
