ISO-10303-21;
HEADER;
FILE_DESCRIPTION (( 'STEP AP203' ),
    '1' );
FILE_NAME ('GSK-DIN11-T.STEP',
    '2025-08-27T12:31:16',
    ( '' ),
    ( '' ),
    'SwSTEP 2.0',
    'SolidWorks 2018',
    '' );
FILE_SCHEMA (( 'CONFIG_CONTROL_DESIGN' ));
ENDSEC;

DATA;
#1 = VECTOR ( 'NONE', #63, 39.37007874015748143 ) ;
#2 = CALENDAR_DATE ( 2025, 27, 8 ) ;
#3 = PERSON_AND_ORGANIZATION ( #93, #139 ) ;
#4 = EDGE_LOOP ( 'NONE', ( #188, #247, #163, #177 ) ) ;
#5 = AXIS2_PLACEMENT_3D ( 'NONE', #112, #211, #138 ) ;
#6 = CIRCLE ( 'NONE', #5, 0.2755000000000000782 ) ;
#7 = CARTESIAN_POINT ( 'NONE',  ( 0.000000000000000000, 0.07900000000000000078, 0.000000000000000000 ) ) ;
#8 = CARTESIAN_POINT ( 'NONE',  ( 3.373901931650958627E-17, 0.000000000000000000, 0.2755000000000000782 ) ) ;
#9 = CYLINDRICAL_SURFACE ( 'NONE', #121, 0.1769999999999999907 ) ;
#10 = ORIENTED_EDGE ( 'NONE', *, *, #79, .F. ) ;
#11 = APPROVAL ( #116, 'UNSPECIFIED' ) ;
#12 = EDGE_CURVE ( 'NONE', #234, #166, #83, .T. ) ;
#13 = VERTEX_POINT ( 'NONE', #169 ) ;
#14 = PLANE ( 'NONE',  #56 ) ;
#15 = CC_DESIGN_PERSON_AND_ORGANIZATION_ASSIGNMENT ( #67, #57, ( #140 ) ) ;
#16 = AXIS2_PLACEMENT_3D ( 'NONE', #133, #233, #228 ) ;
#17 = CARTESIAN_POINT ( 'NONE',  ( 0.000000000000000000, 0.000000000000000000, 0.000000000000000000 ) ) ;
#18 = ORIENTED_EDGE ( 'NONE', *, *, #70, .T. ) ;
#19 = PLANE ( 'NONE',  #82 ) ;
#20 = VERTEX_POINT ( 'NONE', #62 ) ;
#21 = AXIS2_PLACEMENT_3D ( 'NONE', #17, #160, #113 ) ;
#22 = EDGE_CURVE ( 'NONE', #13, #166, #202, .T. ) ;
#23 = SECURITY_CLASSIFICATION_LEVEL ( 'unclassified' ) ;
#24 = EDGE_LOOP ( 'NONE', ( #224, #241, #26, #108 ) ) ;
#25 = PERSON_AND_ORGANIZATION ( #93, #139 ) ;
#26 = ORIENTED_EDGE ( 'NONE', *, *, #22, .T. ) ;
#27 = AXIS2_PLACEMENT_3D ( 'NONE', #226, #186, #127 ) ;
#28 = CC_DESIGN_APPROVAL ( #178, ( #170 ) ) ;
#29 = CARTESIAN_POINT ( 'NONE',  ( 2.167624834490814999E-17, 0.07900000000000000078, 0.1769999999999999907 ) ) ;
#30 = AXIS2_PLACEMENT_3D ( 'NONE', #192, #55, #94 ) ;
#31 = FACE_OUTER_BOUND ( 'NONE', #4, .T. ) ;
#32 = CC_DESIGN_PERSON_AND_ORGANIZATION_ASSIGNMENT ( #3, #197, ( #71 ) ) ;
#33 = DIRECTION ( 'NONE',  ( 0.000000000000000000, 0.000000000000000000, 1.000000000000000000 ) ) ;
#34 = DIRECTION ( 'NONE',  ( -0.000000000000000000, -1.000000000000000000, -0.000000000000000000 ) ) ;
#35 = DIRECTION ( 'NONE',  ( 0.000000000000000000, -0.000000000000000000, 1.000000000000000000 ) ) ;
#36 = CC_DESIGN_PERSON_AND_ORGANIZATION_ASSIGNMENT ( #25, #237, ( #170 ) ) ;
#37 = ORIENTED_EDGE ( 'NONE', *, *, #79, .T. ) ;
#38 = VERTEX_POINT ( 'NONE', #105 ) ;
#39 = APPLICATION_CONTEXT ( 'configuration controlled 3d designs of mechanical parts and assemblies' ) ;
#40 = AXIS2_PLACEMENT_3D ( 'NONE', #7, #49, #244 ) ;
#41 = CALENDAR_DATE ( 2025, 27, 8 ) ;
#42 = CC_DESIGN_PERSON_AND_ORGANIZATION_ASSIGNMENT ( #125, #99, ( #123 ) ) ;
#43 = APPROVAL_PERSON_ORGANIZATION ( #81, #146, #122 ) ;
#44 = LINE ( 'NONE', #128, #1 ) ;
#45 = EDGE_CURVE ( 'NONE', #166, #234, #134, .T. ) ;
#46 = CARTESIAN_POINT ( 'NONE',  ( 0.000000000000000000, 0.000000000000000000, 0.000000000000000000 ) ) ;
#47 = LOCAL_TIME ( 8, 31, 16.00000000000000000, #87 ) ;
#48 = FACE_BOUND ( 'NONE', #78, .T. ) ;
#49 = DIRECTION ( 'NONE',  ( -0.000000000000000000, -1.000000000000000000, -0.000000000000000000 ) ) ;
#50 = DIRECTION ( 'NONE',  ( 0.000000000000000000, 1.000000000000000000, 0.000000000000000000 ) ) ;
#51 = AXIS2_PLACEMENT_3D ( 'NONE', #109, #50, #33 ) ;
#52 = DIRECTION ( 'NONE',  ( 0.000000000000000000, 0.000000000000000000, -1.000000000000000000 ) ) ;
#53 = ORIENTED_EDGE ( 'NONE', *, *, #124, .F. ) ;
#54 = CARTESIAN_POINT ( 'NONE',  ( 0.000000000000000000, 0.07900000000000000078, 0.000000000000000000 ) ) ;
#55 = DIRECTION ( 'NONE',  ( 0.000000000000000000, 1.000000000000000000, 0.000000000000000000 ) ) ;
#56 = AXIS2_PLACEMENT_3D ( 'NONE', #155, #171, #158 ) ;
#57 = PERSON_AND_ORGANIZATION_ROLE ( 'creator' ) ;
#58 = VERTEX_POINT ( 'NONE', #168 ) ;
#59 = ORIENTED_EDGE ( 'NONE', *, *, #85, .T. ) ;
#60 = ADVANCED_FACE ( 'NONE', ( #31 ), #101, .T. ) ;
#61 = FACE_OUTER_BOUND ( 'NONE', #73, .T. ) ;
#62 = CARTESIAN_POINT ( 'NONE',  ( 3.373901931650958627E-17, 0.07900000000000000078, 0.2755000000000000782 ) ) ;
#63 = DIRECTION ( 'NONE',  ( -0.000000000000000000, -1.000000000000000000, -0.000000000000000000 ) ) ;
#64 = ORIENTED_EDGE ( 'NONE', *, *, #193, .T. ) ;
#65 = CARTESIAN_POINT ( 'NONE',  ( 0.000000000000000000, 0.07900000000000000078, -0.2755000000000000782 ) ) ;
#66 = AXIS2_PLACEMENT_3D ( 'NONE', #54, #189, #69 ) ;
#67 = PERSON_AND_ORGANIZATION ( #93, #139 ) ;
#68 = FACE_OUTER_BOUND ( 'NONE', #219, .T. ) ;
#69 = DIRECTION ( 'NONE',  ( 0.000000000000000000, 0.000000000000000000, -1.000000000000000000 ) ) ;
#70 = EDGE_CURVE ( 'NONE', #20, #89, #44, .T. ) ;
#71 = PRODUCT ( 'GSK-DIN11-T', 'GSK-DIN11-T', '', ( #173 ) ) ;
#72 = APPROVAL_PERSON_ORGANIZATION ( #76, #178, #220 ) ;
#73 = EDGE_LOOP ( 'NONE', ( #59, #64, #183, #90 ) ) ;
#74 = CARTESIAN_POINT ( 'NONE',  ( 2.167624834490814999E-17, 0.000000000000000000, 0.1769999999999999907 ) ) ;
#75 =( NAMED_UNIT ( * ) SI_UNIT ( $, .STERADIAN. ) SOLID_ANGLE_UNIT ( ) );
#76 = PERSON_AND_ORGANIZATION ( #93, #139 ) ;
#77 = VECTOR ( 'NONE', #104, 39.37007874015748143 ) ;
#78 = EDGE_LOOP ( 'NONE', ( #191, #179 ) ) ;
#79 = EDGE_CURVE ( 'NONE', #89, #58, #230, .T. ) ;
#80 = DATE_TIME_ROLE ( 'creation_date' ) ;
#81 = PERSON_AND_ORGANIZATION ( #93, #139 ) ;
#82 = AXIS2_PLACEMENT_3D ( 'NONE', #161, #117, #35 ) ;
#83 = CIRCLE ( 'NONE', #27, 0.1769999999999999907 ) ;
#84 = CC_DESIGN_SECURITY_CLASSIFICATION ( #123, ( #170 ) ) ;
#85 = EDGE_CURVE ( 'NONE', #13, #115, #176, .T. ) ;
#86 = DIRECTION ( 'NONE',  ( 0.000000000000000000, 0.000000000000000000, 1.000000000000000000 ) ) ;
#87 = COORDINATED_UNIVERSAL_TIME_OFFSET ( 5, 0, .BEHIND. ) ;
#88 = DIRECTION ( 'NONE',  ( 0.000000000000000000, 0.000000000000000000, 1.000000000000000000 ) ) ;
#89 = VERTEX_POINT ( 'NONE', #8 ) ;
#90 = ORIENTED_EDGE ( 'NONE', *, *, #22, .F. ) ;
#91 = AXIS2_PLACEMENT_3D ( 'NONE', #209, #248, #52 ) ;
#92 = CIRCLE ( 'NONE', #16, 0.2755000000000000782 ) ;
#93 = PERSON ( 'UNSPECIFIED', 'UNSPECIFIED', 'UNSPECIFIED', ('UNSPECIFIED'), ('UNSPECIFIED'), ('UNSPECIFIED') ) ;
#94 = DIRECTION ( 'NONE',  ( 0.000000000000000000, 0.000000000000000000, 1.000000000000000000 ) ) ;
#95 = CALENDAR_DATE ( 2025, 27, 8 ) ;
#96 = COORDINATED_UNIVERSAL_TIME_OFFSET ( 5, 0, .BEHIND. ) ;
#97 = LINE ( 'NONE', #136, #172 ) ;
#98 = EDGE_CURVE ( 'NONE', #38, #58, #103, .T. ) ;
#99 = PERSON_AND_ORGANIZATION_ROLE ( 'classification_officer' ) ;
#100 = CALENDAR_DATE ( 2025, 27, 8 ) ;
#101 = CYLINDRICAL_SURFACE ( 'NONE', #40, 0.2755000000000000782 ) ;
#102 = EDGE_CURVE ( 'NONE', #38, #20, #6, .T. ) ;
#103 = LINE ( 'NONE', #65, #77 ) ;
#104 = DIRECTION ( 'NONE',  ( -0.000000000000000000, -1.000000000000000000, -0.000000000000000000 ) ) ;
#105 = CARTESIAN_POINT ( 'NONE',  ( 0.000000000000000000, 0.07900000000000000078, -0.2755000000000000782 ) ) ;
#106 = LOCAL_TIME ( 8, 31, 16.00000000000000000, #216 ) ;
#107 =( GEOMETRIC_REPRESENTATION_CONTEXT ( 3 ) GLOBAL_UNCERTAINTY_ASSIGNED_CONTEXT ( ( #154 ) ) GLOBAL_UNIT_ASSIGNED_CONTEXT ( ( #198, #215, #75 ) ) REPRESENTATION_CONTEXT ( 'NONE', 'WORKASPACE' ) );
#108 = ORIENTED_EDGE ( 'NONE', *, *, #12, .F. ) ;
#109 = CARTESIAN_POINT ( 'NONE',  ( 0.000000000000000000, 0.07900000000000000078, 0.000000000000000000 ) ) ;
#110 = CIRCLE ( 'NONE', #30, 0.1769999999999999907 ) ;
#111 = DIRECTION ( 'NONE',  ( 0.000000000000000000, 0.000000000000000000, -1.000000000000000000 ) ) ;
#112 = CARTESIAN_POINT ( 'NONE',  ( 0.000000000000000000, 0.07900000000000000078, 0.000000000000000000 ) ) ;
#113 = DIRECTION ( 'NONE',  ( 1.000000000000000000, 0.000000000000000000, 0.000000000000000000 ) ) ;
#114 = PERSON_AND_ORGANIZATION ( #93, #139 ) ;
#115 = VERTEX_POINT ( 'NONE', #29 ) ;
#116 = APPROVAL_STATUS ( 'not_yet_approved' ) ;
#117 = DIRECTION ( 'NONE',  ( 0.000000000000000000, 1.000000000000000000, 0.000000000000000000 ) ) ;
#118 = APPLICATION_PROTOCOL_DEFINITION ( 'international standard', 'config_control_design', 1994, #39 ) ;
#119 = FACE_OUTER_BOUND ( 'NONE', #231, .T. ) ;
#120 = ORIENTED_EDGE ( 'NONE', *, *, #181, .T. ) ;
#121 = AXIS2_PLACEMENT_3D ( 'NONE', #214, #232, #111 ) ;
#122 = APPROVAL_ROLE ( '' ) ;
#123 = SECURITY_CLASSIFICATION ( '', '', #23 ) ;
#124 = EDGE_CURVE ( 'NONE', #58, #89, #92, .T. ) ;
#125 = PERSON_AND_ORGANIZATION ( #93, #139 ) ;
#126 = ORIENTED_EDGE ( 'NONE', *, *, #85, .F. ) ;
#127 = DIRECTION ( 'NONE',  ( 0.000000000000000000, 0.000000000000000000, 1.000000000000000000 ) ) ;
#128 = CARTESIAN_POINT ( 'NONE',  ( 3.373901931650958627E-17, 0.07900000000000000078, 0.2755000000000000782 ) ) ;
#129 = PRODUCT_DEFINITION_SHAPE ( 'NONE', 'NONE',  #140 ) ;
#130 = DATE_AND_TIME ( #41, #218 ) ;
#131 = ORIENTED_EDGE ( 'NONE', *, *, #252, .F. ) ;
#132 = DIRECTION ( 'NONE',  ( 0.000000000000000000, 1.000000000000000000, 0.000000000000000000 ) ) ;
#133 = CARTESIAN_POINT ( 'NONE',  ( 0.000000000000000000, 0.000000000000000000, 0.000000000000000000 ) ) ;
#134 = CIRCLE ( 'NONE', #208, 0.1769999999999999907 ) ;
#135 = EDGE_LOOP ( 'NONE', ( #196, #120 ) ) ;
#136 = CARTESIAN_POINT ( 'NONE',  ( 2.167624834490814999E-17, 0.07900000000000000078, 0.1769999999999999907 ) ) ;
#137 = APPROVAL_DATE_TIME ( #206, #146 ) ;
#138 = DIRECTION ( 'NONE',  ( 0.000000000000000000, 0.000000000000000000, 1.000000000000000000 ) ) ;
#139 = ORGANIZATION ( 'UNSPECIFIED', 'UNSPECIFIED', '' ) ;
#140 = PRODUCT_DEFINITION ( 'UNKNOWN', '', #170, #225 ) ;
#141 =( LENGTH_UNIT ( ) NAMED_UNIT ( * ) SI_UNIT ( $, .METRE. ) );
#142 = DATE_AND_TIME ( #175, #106 ) ;
#143 = EDGE_LOOP ( 'NONE', ( #126, #131 ) ) ;
#144 = MANIFOLD_SOLID_BREP ( 'Boss-Extrude1', #151 ) ;
#145 = PERSON_AND_ORGANIZATION_ROLE ( 'design_supplier' ) ;
#146 = APPROVAL ( #180, 'UNSPECIFIED' ) ;
#147 = DATE_AND_TIME ( #100, #207 ) ;
#148 = ADVANCED_FACE ( 'NONE', ( #68, #48 ), #14, .F. ) ;
#149 = CARTESIAN_POINT ( 'NONE',  ( 0.000000000000000000, 0.07900000000000000078, 0.000000000000000000 ) ) ;
#150 = ADVANCED_FACE ( 'NONE', ( #119 ), #190, .T. ) ;
#151 = CLOSED_SHELL ( 'NONE', ( #182, #150, #201, #148, #60, #184 ) ) ;
#152 = CARTESIAN_POINT ( 'NONE',  ( 0.000000000000000000, 0.000000000000000000, 0.000000000000000000 ) ) ;
#153 = CC_DESIGN_DATE_AND_TIME_ASSIGNMENT ( #130, #80, ( #140 ) ) ;
#154 = UNCERTAINTY_MEASURE_WITH_UNIT (LENGTH_MEASURE( 1.000000000000000082E-05 ), #198, 'distance_accuracy_value', 'NONE');
#155 = CARTESIAN_POINT ( 'NONE',  ( 0.000000000000000000, 0.000000000000000000, 0.000000000000000000 ) ) ;
#156 = CARTESIAN_POINT ( 'NONE',  ( 0.000000000000000000, 0.000000000000000000, -0.1769999999999999907 ) ) ;
#157 = FACE_BOUND ( 'NONE', #143, .T. ) ;
#158 = DIRECTION ( 'NONE',  ( 0.000000000000000000, -0.000000000000000000, 1.000000000000000000 ) ) ;
#159 = APPROVAL_PERSON_ORGANIZATION ( #114, #11, #174 ) ;
#160 = DIRECTION ( 'NONE',  ( 0.000000000000000000, 0.000000000000000000, 1.000000000000000000 ) ) ;
#161 = CARTESIAN_POINT ( 'NONE',  ( 0.000000000000000000, 0.07900000000000000078, 0.000000000000000000 ) ) ;
#162 = LOCAL_TIME ( 8, 31, 16.00000000000000000, #212 ) ;
#163 = ORIENTED_EDGE ( 'NONE', *, *, #98, .T. ) ;
#164 = PRODUCT_RELATED_PRODUCT_CATEGORY ( 'detail', '', ( #71 ) ) ;
#165 = ORIENTED_EDGE ( 'NONE', *, *, #98, .F. ) ;
#166 = VERTEX_POINT ( 'NONE', #156 ) ;
#167 = ADVANCED_BREP_SHAPE_REPRESENTATION ( 'GSK-DIN11-T', ( #144, #21 ), #107 ) ;
#168 = CARTESIAN_POINT ( 'NONE',  ( 0.000000000000000000, 0.000000000000000000, -0.2755000000000000782 ) ) ;
#169 = CARTESIAN_POINT ( 'NONE',  ( 0.000000000000000000, 0.07900000000000000078, -0.1769999999999999907 ) ) ;
#170 = PRODUCT_DEFINITION_FORMATION_WITH_SPECIFIED_SOURCE ( 'ANY', '', #71, .NOT_KNOWN. ) ;
#171 = DIRECTION ( 'NONE',  ( 0.000000000000000000, 1.000000000000000000, 0.000000000000000000 ) ) ;
#172 = VECTOR ( 'NONE', #34, 39.37007874015748143 ) ;
#173 = MECHANICAL_CONTEXT ( 'NONE', #251, 'mechanical' ) ;
#174 = APPROVAL_ROLE ( '' ) ;
#175 = CALENDAR_DATE ( 2025, 27, 8 ) ;
#176 = CIRCLE ( 'NONE', #246, 0.1769999999999999907 ) ;
#177 = ORIENTED_EDGE ( 'NONE', *, *, #124, .T. ) ;
#178 = APPROVAL ( #238, 'UNSPECIFIED' ) ;
#179 = ORIENTED_EDGE ( 'NONE', *, *, #12, .T. ) ;
#180 = APPROVAL_STATUS ( 'not_yet_approved' ) ;
#181 = EDGE_CURVE ( 'NONE', #20, #38, #243, .T. ) ;
#182 = ADVANCED_FACE ( 'NONE', ( #61 ), #199, .F. ) ;
#183 = ORIENTED_EDGE ( 'NONE', *, *, #45, .F. ) ;
#184 = ADVANCED_FACE ( 'NONE', ( #250 ), #9, .F. ) ;
#185 = DIRECTION ( 'NONE',  ( -0.000000000000000000, -1.000000000000000000, -0.000000000000000000 ) ) ;
#186 = DIRECTION ( 'NONE',  ( 0.000000000000000000, 1.000000000000000000, 0.000000000000000000 ) ) ;
#187 = SHAPE_DEFINITION_REPRESENTATION ( #129, #167 ) ;
#188 = ORIENTED_EDGE ( 'NONE', *, *, #70, .F. ) ;
#189 = DIRECTION ( 'NONE',  ( -0.000000000000000000, -1.000000000000000000, -0.000000000000000000 ) ) ;
#190 = CYLINDRICAL_SURFACE ( 'NONE', #66, 0.2755000000000000782 ) ;
#191 = ORIENTED_EDGE ( 'NONE', *, *, #45, .T. ) ;
#192 = CARTESIAN_POINT ( 'NONE',  ( 0.000000000000000000, 0.07900000000000000078, 0.000000000000000000 ) ) ;
#193 = EDGE_CURVE ( 'NONE', #115, #234, #97, .T. ) ;
#194 = DATE_AND_TIME ( #95, #162 ) ;
#195 = COORDINATED_UNIVERSAL_TIME_OFFSET ( 5, 0, .BEHIND. ) ;
#196 = ORIENTED_EDGE ( 'NONE', *, *, #102, .T. ) ;
#197 = PERSON_AND_ORGANIZATION_ROLE ( 'design_owner' ) ;
#198 =( CONVERSION_BASED_UNIT ( 'INCH', #222 ) LENGTH_UNIT ( ) NAMED_UNIT ( #221 ) );
#199 = CYLINDRICAL_SURFACE ( 'NONE', #91, 0.1769999999999999907 ) ;
#200 = DATE_TIME_ROLE ( 'classification_date' ) ;
#201 = ADVANCED_FACE ( 'NONE', ( #213, #157 ), #19, .T. ) ;
#202 = LINE ( 'NONE', #242, #236 ) ;
#203 = DIRECTION ( 'NONE',  ( 0.000000000000000000, 0.000000000000000000, 1.000000000000000000 ) ) ;
#204 = CC_DESIGN_DATE_AND_TIME_ASSIGNMENT ( #194, #200, ( #123 ) ) ;
#205 = DIRECTION ( 'NONE',  ( 0.000000000000000000, 1.000000000000000000, 0.000000000000000000 ) ) ;
#206 = DATE_AND_TIME ( #2, #47 ) ;
#207 = LOCAL_TIME ( 8, 31, 16.00000000000000000, #195 ) ;
#208 = AXIS2_PLACEMENT_3D ( 'NONE', #46, #245, #88 ) ;
#209 = CARTESIAN_POINT ( 'NONE',  ( 0.000000000000000000, 0.07900000000000000078, 0.000000000000000000 ) ) ;
#210 = CC_DESIGN_APPROVAL ( #11, ( #140 ) ) ;
#211 = DIRECTION ( 'NONE',  ( 0.000000000000000000, 1.000000000000000000, 0.000000000000000000 ) ) ;
#212 = COORDINATED_UNIVERSAL_TIME_OFFSET ( 5, 0, .BEHIND. ) ;
#213 = FACE_OUTER_BOUND ( 'NONE', #135, .T. ) ;
#214 = CARTESIAN_POINT ( 'NONE',  ( 0.000000000000000000, 0.07900000000000000078, 0.000000000000000000 ) ) ;
#215 =( NAMED_UNIT ( * ) PLANE_ANGLE_UNIT ( ) SI_UNIT ( $, .RADIAN. ) );
#216 = COORDINATED_UNIVERSAL_TIME_OFFSET ( 5, 0, .BEHIND. ) ;
#217 = ORIENTED_EDGE ( 'NONE', *, *, #181, .F. ) ;
#218 = LOCAL_TIME ( 8, 31, 16.00000000000000000, #96 ) ;
#219 = EDGE_LOOP ( 'NONE', ( #53, #10 ) ) ;
#220 = APPROVAL_ROLE ( '' ) ;
#221 = DIMENSIONAL_EXPONENTS ( 1.000000000000000000, 0.000000000000000000, 0.000000000000000000, 0.000000000000000000, 0.000000000000000000, 0.000000000000000000, 0.000000000000000000 ) ;
#222 = LENGTH_MEASURE_WITH_UNIT ( LENGTH_MEASURE( 0.02539999999999999897 ), #141 );
#223 = AXIS2_PLACEMENT_3D ( 'NONE', #152, #132, #203 ) ;
#224 = ORIENTED_EDGE ( 'NONE', *, *, #193, .F. ) ;
#225 = DESIGN_CONTEXT ( 'detailed design', #39, 'design' ) ;
#226 = CARTESIAN_POINT ( 'NONE',  ( 0.000000000000000000, 0.000000000000000000, 0.000000000000000000 ) ) ;
#227 = CC_DESIGN_APPROVAL ( #146, ( #123 ) ) ;
#228 = DIRECTION ( 'NONE',  ( 0.000000000000000000, 0.000000000000000000, 1.000000000000000000 ) ) ;
#229 = PERSON_AND_ORGANIZATION ( #93, #139 ) ;
#230 = CIRCLE ( 'NONE', #223, 0.2755000000000000782 ) ;
#231 = EDGE_LOOP ( 'NONE', ( #217, #18, #37, #165 ) ) ;
#232 = DIRECTION ( 'NONE',  ( -0.000000000000000000, -1.000000000000000000, -0.000000000000000000 ) ) ;
#233 = DIRECTION ( 'NONE',  ( 0.000000000000000000, 1.000000000000000000, 0.000000000000000000 ) ) ;
#234 = VERTEX_POINT ( 'NONE', #74 ) ;
#235 = APPLICATION_PROTOCOL_DEFINITION ( 'international standard', 'config_control_design', 1994, #251 ) ;
#236 = VECTOR ( 'NONE', #185, 39.37007874015748143 ) ;
#237 = PERSON_AND_ORGANIZATION_ROLE ( 'creator' ) ;
#238 = APPROVAL_STATUS ( 'not_yet_approved' ) ;
#239 = CC_DESIGN_PERSON_AND_ORGANIZATION_ASSIGNMENT ( #229, #145, ( #170 ) ) ;
#240 = APPROVAL_DATE_TIME ( #147, #178 ) ;
#241 = ORIENTED_EDGE ( 'NONE', *, *, #252, .T. ) ;
#242 = CARTESIAN_POINT ( 'NONE',  ( 0.000000000000000000, 0.07900000000000000078, -0.1769999999999999907 ) ) ;
#243 = CIRCLE ( 'NONE', #51, 0.2755000000000000782 ) ;
#244 = DIRECTION ( 'NONE',  ( 0.000000000000000000, 0.000000000000000000, -1.000000000000000000 ) ) ;
#245 = DIRECTION ( 'NONE',  ( 0.000000000000000000, 1.000000000000000000, 0.000000000000000000 ) ) ;
#246 = AXIS2_PLACEMENT_3D ( 'NONE', #149, #205, #86 ) ;
#247 = ORIENTED_EDGE ( 'NONE', *, *, #102, .F. ) ;
#248 = DIRECTION ( 'NONE',  ( -0.000000000000000000, -1.000000000000000000, -0.000000000000000000 ) ) ;
#249 = APPROVAL_DATE_TIME ( #142, #11 ) ;
#250 = FACE_OUTER_BOUND ( 'NONE', #24, .T. ) ;
#251 = APPLICATION_CONTEXT ( 'configuration controlled 3d designs of mechanical parts and assemblies' ) ;
#252 = EDGE_CURVE ( 'NONE', #115, #13, #110, .T. ) ;
ENDSEC;
END-ISO-10303-21;
