ISO-10303-21;
HEADER;
FILE_DESCRIPTION (( 'STEP AP203' ),
    '1' );
FILE_NAME ('GSK-DIN2-T.STEP',
    '2025-08-26T20:16:32',
    ( '' ),
    ( '' ),
    'SwSTEP 2.0',
    'SolidWorks 2018',
    '' );
FILE_SCHEMA (( 'CONFIG_CONTROL_DESIGN' ));
ENDSEC;

DATA;
#1 =( NAMED_UNIT ( * ) SI_UNIT ( $, .STERADIAN. ) SOLID_ANGLE_UNIT ( ) );
#2 = CARTESIAN_POINT ( 'NONE',  ( 0.000000000000000000, 0.000000000000000000, 0.000000000000000000 ) ) ;
#3 = VERTEX_POINT ( 'NONE', #129 ) ;
#4 = APPROVAL_DATE_TIME ( #102, #160 ) ;
#5 = EDGE_CURVE ( 'NONE', #219, #19, #9, .T. ) ;
#6 = VERTEX_POINT ( 'NONE', #32 ) ;
#7 = FACE_OUTER_BOUND ( 'NONE', #56, .T. ) ;
#8 = EDGE_CURVE ( 'NONE', #119, #63, #153, .T. ) ;
#9 = LINE ( 'NONE', #132, #53 ) ;
#10 = PERSON_AND_ORGANIZATION ( #158, #26 ) ;
#11 = ORIENTED_EDGE ( 'NONE', *, *, #34, .T. ) ;
#12 = AXIS2_PLACEMENT_3D ( 'NONE', #64, #24, #61 ) ;
#13 = EDGE_LOOP ( 'NONE', ( #221, #114 ) ) ;
#14 = EDGE_CURVE ( 'NONE', #161, #219, #84, .T. ) ;
#15 = CALENDAR_DATE ( 2025, 26, 8 ) ;
#16 = ADVANCED_FACE ( 'NONE', ( #175 ), #249, .F. ) ;
#17 = DIMENSIONAL_EXPONENTS ( 1.000000000000000000, 0.000000000000000000, 0.000000000000000000, 0.000000000000000000, 0.000000000000000000, 0.000000000000000000, 0.000000000000000000 ) ;
#18 = DIRECTION ( 'NONE',  ( 1.000000000000000000, 0.000000000000000000, -0.000000000000000000 ) ) ;
#19 = VERTEX_POINT ( 'NONE', #136 ) ;
#20 = CARTESIAN_POINT ( 'NONE',  ( 0.000000000000000000, 0.000000000000000000, 0.000000000000000000 ) ) ;
#21 = PLANE ( 'NONE',  #188 ) ;
#22 = CYLINDRICAL_SURFACE ( 'NONE', #12, 0.1990000000000000102 ) ;
#23 = APPROVAL_DATE_TIME ( #70, #71 ) ;
#24 = DIRECTION ( 'NONE',  ( -0.000000000000000000, -0.000000000000000000, -1.000000000000000000 ) ) ;
#25 = PERSON_AND_ORGANIZATION_ROLE ( 'design_owner' ) ;
#26 = ORGANIZATION ( 'UNSPECIFIED', 'UNSPECIFIED', '' ) ;
#27 = AXIS2_PLACEMENT_3D ( 'NONE', #224, #239, #127 ) ;
#28 = COORDINATED_UNIVERSAL_TIME_OFFSET ( 5, 0, .BEHIND. ) ;
#29 = CC_DESIGN_APPROVAL ( #71, ( #38 ) ) ;
#30 =( GEOMETRIC_REPRESENTATION_CONTEXT ( 3 ) GLOBAL_UNCERTAINTY_ASSIGNED_CONTEXT ( ( #178 ) ) GLOBAL_UNIT_ASSIGNED_CONTEXT ( ( #125, #198, #1 ) ) REPRESENTATION_CONTEXT ( 'NONE', 'WORKASPACE' ) );
#31 = SHAPE_DEFINITION_REPRESENTATION ( #92, #88 ) ;
#32 = CARTESIAN_POINT ( 'NONE',  ( -0.3375000000000000222, -4.133182947122317783E-17, 0.000000000000000000 ) ) ;
#33 = VECTOR ( 'NONE', #42, 39.37007874015748143 ) ;
#34 = EDGE_CURVE ( 'NONE', #6, #19, #241, .T. ) ;
#35 = ORIENTED_EDGE ( 'NONE', *, *, #225, .F. ) ;
#36 = CALENDAR_DATE ( 2025, 26, 8 ) ;
#37 = DIRECTION ( 'NONE',  ( -0.000000000000000000, -0.000000000000000000, -1.000000000000000000 ) ) ;
#38 = PRODUCT_DEFINITION ( 'UNKNOWN', '', #133, #180 ) ;
#39 = CARTESIAN_POINT ( 'NONE',  ( -0.3180231702608889988, -4.013921761134616033E-17, 0.1419999999999999873 ) ) ;
#40 = CIRCLE ( 'NONE', #150, 0.3180231702608889988 ) ;
#41 = DIRECTION ( 'NONE',  ( 1.000000000000000000, 0.000000000000000000, 0.000000000000000000 ) ) ;
#42 = DIRECTION ( 'NONE',  ( -0.000000000000000000, -0.000000000000000000, -1.000000000000000000 ) ) ;
#43 = PERSON_AND_ORGANIZATION_ROLE ( 'creator' ) ;
#44 = ORIENTED_EDGE ( 'NONE', *, *, #118, .F. ) ;
#45 = APPLICATION_PROTOCOL_DEFINITION ( 'international standard', 'config_control_design', 1994, #100 ) ;
#46 = APPROVAL_ROLE ( '' ) ;
#47 = CARTESIAN_POINT ( 'NONE',  ( 0.000000000000000000, 0.000000000000000000, 0.1419999999999999873 ) ) ;
#48 = ORIENTED_EDGE ( 'NONE', *, *, #149, .T. ) ;
#49 = ORIENTED_EDGE ( 'NONE', *, *, #131, .T. ) ;
#50 = PERSON_AND_ORGANIZATION ( #158, #26 ) ;
#51 = AXIS2_PLACEMENT_3D ( 'NONE', #2, #167, #122 ) ;
#52 = PRODUCT_RELATED_PRODUCT_CATEGORY ( 'detail', '', ( #226 ) ) ;
#53 = VECTOR ( 'NONE', #87, 39.37007874015748143 ) ;
#54 = CC_DESIGN_PERSON_AND_ORGANIZATION_ASSIGNMENT ( #139, #81, ( #174 ) ) ;
#55 = CIRCLE ( 'NONE', #242, 0.1990000000000000102 ) ;
#56 = EDGE_LOOP ( 'NONE', ( #227, #135 ) ) ;
#57 = CALENDAR_DATE ( 2025, 26, 8 ) ;
#58 = CARTESIAN_POINT ( 'NONE',  ( 0.000000000000000000, 0.000000000000000000, 0.000000000000000000 ) ) ;
#59 = DIRECTION ( 'NONE',  ( 1.000000000000000000, 0.000000000000000000, 0.000000000000000000 ) ) ;
#60 = CC_DESIGN_PERSON_AND_ORGANIZATION_ASSIGNMENT ( #154, #25, ( #226 ) ) ;
#61 = DIRECTION ( 'NONE',  ( -1.000000000000000000, 0.000000000000000000, 0.000000000000000000 ) ) ;
#62 = DIRECTION ( 'NONE',  ( 1.000000000000000000, 0.000000000000000000, 0.000000000000000000 ) ) ;
#63 = VERTEX_POINT ( 'NONE', #211 ) ;
#64 = CARTESIAN_POINT ( 'NONE',  ( 0.000000000000000000, 0.000000000000000000, 0.1419999999999999873 ) ) ;
#65 = PERSON_AND_ORGANIZATION ( #158, #26 ) ;
#66 = EDGE_CURVE ( 'NONE', #63, #3, #148, .T. ) ;
#67 = EDGE_LOOP ( 'NONE', ( #234, #144, #11, #205 ) ) ;
#68 = APPROVAL_DATE_TIME ( #78, #200 ) ;
#69 = EDGE_LOOP ( 'NONE', ( #236, #204, #130, #35 ) ) ;
#70 = DATE_AND_TIME ( #57, #228 ) ;
#71 = APPROVAL ( #103, 'UNSPECIFIED' ) ;
#72 = ADVANCED_FACE ( 'NONE', ( #128 ), #208, .T. ) ;
#73 = DIRECTION ( 'NONE',  ( 0.000000000000000000, 0.000000000000000000, 1.000000000000000000 ) ) ;
#74 = CIRCLE ( 'NONE', #181, 0.3375000000000000222 ) ;
#75 = CARTESIAN_POINT ( 'NONE',  ( 0.000000000000000000, 0.000000000000000000, 0.000000000000000000 ) ) ;
#76 = AXIS2_PLACEMENT_3D ( 'NONE', #137, #37, #248 ) ;
#77 = CARTESIAN_POINT ( 'NONE',  ( 0.000000000000000000, 0.000000000000000000, 0.1419999999999999873 ) ) ;
#78 = DATE_AND_TIME ( #98, #237 ) ;
#79 = APPROVAL_ROLE ( '' ) ;
#80 = CARTESIAN_POINT ( 'NONE',  ( 0.000000000000000000, 0.000000000000000000, 0.000000000000000000 ) ) ;
#81 = PERSON_AND_ORGANIZATION_ROLE ( 'classification_officer' ) ;
#82 = FACE_OUTER_BOUND ( 'NONE', #111, .T. ) ;
#83 = LOCAL_TIME ( 16, 16, 32.00000000000000000, #173 ) ;
#84 = CIRCLE ( 'NONE', #27, 0.3180231702608889988 ) ;
#85 = LOCAL_TIME ( 16, 16, 32.00000000000000000, #28 ) ;
#86 = FACE_OUTER_BOUND ( 'NONE', #69, .T. ) ;
#87 = DIRECTION ( 'NONE',  ( 0.1358884884850929120, 0.000000000000000000, -0.9907241385457592475 ) ) ;
#88 = ADVANCED_BREP_SHAPE_REPRESENTATION ( 'GSK-DIN2-T', ( #185, #51 ), #30 ) ;
#89 = LINE ( 'NONE', #164, #101 ) ;
#90 = ORIENTED_EDGE ( 'NONE', *, *, #105, .T. ) ;
#91 = DIRECTION ( 'NONE',  ( 0.000000000000000000, 0.000000000000000000, 1.000000000000000000 ) ) ;
#92 = PRODUCT_DEFINITION_SHAPE ( 'NONE', 'NONE',  #38 ) ;
#93 = CARTESIAN_POINT ( 'NONE',  ( 0.000000000000000000, 0.000000000000000000, 0.1419999999999999873 ) ) ;
#94 = ORIENTED_EDGE ( 'NONE', *, *, #66, .F. ) ;
#95 = DIRECTION ( 'NONE',  ( -0.000000000000000000, -0.000000000000000000, -1.000000000000000000 ) ) ;
#96 = ADVANCED_FACE ( 'NONE', ( #7, #169 ), #230, .F. ) ;
#97 = DIRECTION ( 'NONE',  ( 0.000000000000000000, 0.000000000000000000, 1.000000000000000000 ) ) ;
#98 = CALENDAR_DATE ( 2025, 26, 8 ) ;
#99 = APPROVAL_STATUS ( 'not_yet_approved' ) ;
#100 = APPLICATION_CONTEXT ( 'configuration controlled 3d designs of mechanical parts and assemblies' ) ;
#101 = VECTOR ( 'NONE', #112, 39.37007874015748143 ) ;
#102 = DATE_AND_TIME ( #36, #83 ) ;
#103 = APPROVAL_STATUS ( 'not_yet_approved' ) ;
#104 = DATE_TIME_ROLE ( 'creation_date' ) ;
#105 = EDGE_CURVE ( 'NONE', #219, #161, #40, .T. ) ;
#106 = LINE ( 'NONE', #214, #33 ) ;
#107 = AXIS2_PLACEMENT_3D ( 'NONE', #47, #109, #243 ) ;
#108 = ORIENTED_EDGE ( 'NONE', *, *, #217, .F. ) ;
#109 = DIRECTION ( 'NONE',  ( -0.000000000000000000, -0.000000000000000000, -1.000000000000000000 ) ) ;
#110 = DATE_AND_TIME ( #15, #85 ) ;
#111 = EDGE_LOOP ( 'NONE', ( #90, #247 ) ) ;
#112 = DIRECTION ( 'NONE',  ( -0.1358884884850929120, -1.664154024642409929E-17, -0.9907241385457592475 ) ) ;
#113 = DIRECTION ( 'NONE',  ( 0.000000000000000000, 0.000000000000000000, 1.000000000000000000 ) ) ;
#114 = ORIENTED_EDGE ( 'NONE', *, *, #225, .T. ) ;
#115 = CC_DESIGN_DATE_AND_TIME_ASSIGNMENT ( #110, #218, ( #174 ) ) ;
#116 = LENGTH_MEASURE_WITH_UNIT ( LENGTH_MEASURE( 0.02539999999999999897 ), #233 );
#117 = CARTESIAN_POINT ( 'NONE',  ( -0.1990000000000000102, 0.000000000000000000, 0.1419999999999999873 ) ) ;
#118 = EDGE_CURVE ( 'NONE', #161, #6, #89, .T. ) ;
#119 = VERTEX_POINT ( 'NONE', #117 ) ;
#120 = DIRECTION ( 'NONE',  ( 0.000000000000000000, 0.000000000000000000, 1.000000000000000000 ) ) ;
#121 = APPROVAL_PERSON_ORGANIZATION ( #179, #200, #79 ) ;
#122 = DIRECTION ( 'NONE',  ( 1.000000000000000000, 0.000000000000000000, 0.000000000000000000 ) ) ;
#123 = AXIS2_PLACEMENT_3D ( 'NONE', #75, #73, #162 ) ;
#124 = CIRCLE ( 'NONE', #238, 0.1990000000000000102 ) ;
#125 =( CONVERSION_BASED_UNIT ( 'INCH', #116 ) LENGTH_UNIT ( ) NAMED_UNIT ( #17 ) );
#126 = CC_DESIGN_DATE_AND_TIME_ASSIGNMENT ( #250, #104, ( #38 ) ) ;
#127 = DIRECTION ( 'NONE',  ( 1.000000000000000000, 0.000000000000000000, 0.000000000000000000 ) ) ;
#128 = FACE_OUTER_BOUND ( 'NONE', #67, .T. ) ;
#129 = CARTESIAN_POINT ( 'NONE',  ( 0.1990000000000000102, 2.437047130303233033E-17, 0.000000000000000000 ) ) ;
#130 = ORIENTED_EDGE ( 'NONE', *, *, #8, .T. ) ;
#131 = EDGE_CURVE ( 'NONE', #19, #6, #74, .T. ) ;
#132 = CARTESIAN_POINT ( 'NONE',  ( 0.3375000000000000222, 0.000000000000000000, 0.000000000000000000 ) ) ;
#133 = PRODUCT_DEFINITION_FORMATION_WITH_SPECIFIED_SOURCE ( 'ANY', '', #226, .NOT_KNOWN. ) ;
#134 = ADVANCED_FACE ( 'NONE', ( #82, #240 ), #21, .T. ) ;
#135 = ORIENTED_EDGE ( 'NONE', *, *, #34, .F. ) ;
#136 = CARTESIAN_POINT ( 'NONE',  ( 0.3375000000000000222, 0.000000000000000000, 0.000000000000000000 ) ) ;
#137 = CARTESIAN_POINT ( 'NONE',  ( 0.000000000000000000, 0.000000000000000000, 0.000000000000000000 ) ) ;
#138 = FACE_OUTER_BOUND ( 'NONE', #245, .T. ) ;
#139 = PERSON_AND_ORGANIZATION ( #158, #26 ) ;
#140 = DIRECTION ( 'NONE',  ( 1.000000000000000000, 0.000000000000000000, 0.000000000000000000 ) ) ;
#141 = EDGE_CURVE ( 'NONE', #119, #201, #124, .T. ) ;
#142 = PERSON_AND_ORGANIZATION_ROLE ( 'design_supplier' ) ;
#143 = CARTESIAN_POINT ( 'NONE',  ( 0.3180231702608889988, 0.000000000000000000, 0.1419999999999999873 ) ) ;
#144 = ORIENTED_EDGE ( 'NONE', *, *, #118, .T. ) ;
#145 = APPLICATION_PROTOCOL_DEFINITION ( 'international standard', 'config_control_design', 1994, #146 ) ;
#146 = APPLICATION_CONTEXT ( 'configuration controlled 3d designs of mechanical parts and assemblies' ) ;
#147 = CC_DESIGN_PERSON_AND_ORGANIZATION_ASSIGNMENT ( #192, #142, ( #133 ) ) ;
#148 = CIRCLE ( 'NONE', #123, 0.1990000000000000102 ) ;
#149 = EDGE_CURVE ( 'NONE', #201, #3, #106, .T. ) ;
#150 = AXIS2_PLACEMENT_3D ( 'NONE', #77, #91, #182 ) ;
#151 = ORIENTED_EDGE ( 'NONE', *, *, #8, .F. ) ;
#152 = CARTESIAN_POINT ( 'NONE',  ( -0.1990000000000000102, 0.000000000000000000, 0.1419999999999999873 ) ) ;
#153 = LINE ( 'NONE', #152, #197 ) ;
#154 = PERSON_AND_ORGANIZATION ( #158, #26 ) ;
#155 = CC_DESIGN_PERSON_AND_ORGANIZATION_ASSIGNMENT ( #50, #186, ( #133 ) ) ;
#156 = CONICAL_SURFACE ( 'NONE', #190, 0.3375000000000000222, 0.1363102145807574272 ) ;
#157 = CARTESIAN_POINT ( 'NONE',  ( 0.000000000000000000, 0.000000000000000000, 0.000000000000000000 ) ) ;
#158 = PERSON ( 'UNSPECIFIED', 'UNSPECIFIED', 'UNSPECIFIED', ('UNSPECIFIED'), ('UNSPECIFIED'), ('UNSPECIFIED') ) ;
#159 = DIRECTION ( 'NONE',  ( 1.000000000000000000, 0.000000000000000000, -0.000000000000000000 ) ) ;
#160 = APPROVAL ( #99, 'UNSPECIFIED' ) ;
#161 = VERTEX_POINT ( 'NONE', #39 ) ;
#162 = DIRECTION ( 'NONE',  ( 1.000000000000000000, 0.000000000000000000, 0.000000000000000000 ) ) ;
#163 = CALENDAR_DATE ( 2025, 26, 8 ) ;
#164 = CARTESIAN_POINT ( 'NONE',  ( -0.3375000000000000222, -4.133182947122317783E-17, 0.000000000000000000 ) ) ;
#165 = AXIS2_PLACEMENT_3D ( 'NONE', #58, #183, #18 ) ;
#166 = DIRECTION ( 'NONE',  ( 1.000000000000000000, 0.000000000000000000, 0.000000000000000000 ) ) ;
#167 = DIRECTION ( 'NONE',  ( 0.000000000000000000, 0.000000000000000000, 1.000000000000000000 ) ) ;
#168 = CC_DESIGN_APPROVAL ( #160, ( #174 ) ) ;
#169 = FACE_BOUND ( 'NONE', #13, .T. ) ;
#170 = EDGE_LOOP ( 'NONE', ( #231, #108 ) ) ;
#171 = MECHANICAL_CONTEXT ( 'NONE', #100, 'mechanical' ) ;
#172 = ORIENTED_EDGE ( 'NONE', *, *, #105, .F. ) ;
#173 = COORDINATED_UNIVERSAL_TIME_OFFSET ( 5, 0, .BEHIND. ) ;
#174 = SECURITY_CLASSIFICATION ( '', '', #235 ) ;
#175 = FACE_OUTER_BOUND ( 'NONE', #220, .T. ) ;
#176 = APPROVAL_PERSON_ORGANIZATION ( #232, #71, #46 ) ;
#177 = CC_DESIGN_PERSON_AND_ORGANIZATION_ASSIGNMENT ( #65, #43, ( #38 ) ) ;
#178 = UNCERTAINTY_MEASURE_WITH_UNIT (LENGTH_MEASURE( 1.000000000000000082E-05 ), #125, 'distance_accuracy_value', 'NONE');
#179 = PERSON_AND_ORGANIZATION ( #158, #26 ) ;
#180 = DESIGN_CONTEXT ( 'detailed design', #146, 'design' ) ;
#181 = AXIS2_PLACEMENT_3D ( 'NONE', #157, #97, #140 ) ;
#182 = DIRECTION ( 'NONE',  ( 1.000000000000000000, 0.000000000000000000, 0.000000000000000000 ) ) ;
#183 = DIRECTION ( 'NONE',  ( 0.000000000000000000, 0.000000000000000000, 1.000000000000000000 ) ) ;
#184 = DIRECTION ( 'NONE',  ( 1.000000000000000000, 0.000000000000000000, 0.000000000000000000 ) ) ;
#185 = MANIFOLD_SOLID_BREP ( 'Draft5', #191 ) ;
#186 = PERSON_AND_ORGANIZATION_ROLE ( 'creator' ) ;
#187 = APPROVAL_STATUS ( 'not_yet_approved' ) ;
#188 = AXIS2_PLACEMENT_3D ( 'NONE', #93, #113, #159 ) ;
#189 = LOCAL_TIME ( 16, 16, 32.00000000000000000, #222 ) ;
#190 = AXIS2_PLACEMENT_3D ( 'NONE', #252, #95, #184 ) ;
#191 = CLOSED_SHELL ( 'NONE', ( #16, #72, #134, #96, #193, #246 ) ) ;
#192 = PERSON_AND_ORGANIZATION ( #158, #26 ) ;
#193 = ADVANCED_FACE ( 'NONE', ( #138 ), #156, .T. ) ;
#194 = CIRCLE ( 'NONE', #202, 0.1990000000000000102 ) ;
#195 = ORIENTED_EDGE ( 'NONE', *, *, #5, .T. ) ;
#196 = DIRECTION ( 'NONE',  ( 0.000000000000000000, 0.000000000000000000, 1.000000000000000000 ) ) ;
#197 = VECTOR ( 'NONE', #206, 39.37007874015748143 ) ;
#198 =( NAMED_UNIT ( * ) PLANE_ANGLE_UNIT ( ) SI_UNIT ( $, .RADIAN. ) );
#199 = CARTESIAN_POINT ( 'NONE',  ( 0.000000000000000000, 0.000000000000000000, 0.1419999999999999873 ) ) ;
#200 = APPROVAL ( #187, 'UNSPECIFIED' ) ;
#201 = VERTEX_POINT ( 'NONE', #216 ) ;
#202 = AXIS2_PLACEMENT_3D ( 'NONE', #80, #203, #59 ) ;
#203 = DIRECTION ( 'NONE',  ( 0.000000000000000000, 0.000000000000000000, 1.000000000000000000 ) ) ;
#204 = ORIENTED_EDGE ( 'NONE', *, *, #217, .T. ) ;
#205 = ORIENTED_EDGE ( 'NONE', *, *, #5, .F. ) ;
#206 = DIRECTION ( 'NONE',  ( -0.000000000000000000, -0.000000000000000000, -1.000000000000000000 ) ) ;
#207 = COORDINATED_UNIVERSAL_TIME_OFFSET ( 5, 0, .BEHIND. ) ;
#208 = CONICAL_SURFACE ( 'NONE', #76, 0.3375000000000000222, 0.1363102145807574272 ) ;
#209 = APPROVAL_PERSON_ORGANIZATION ( #10, #160, #215 ) ;
#210 = ORIENTED_EDGE ( 'NONE', *, *, #141, .T. ) ;
#211 = CARTESIAN_POINT ( 'NONE',  ( -0.1990000000000000102, 0.000000000000000000, 0.000000000000000000 ) ) ;
#212 = COORDINATED_UNIVERSAL_TIME_OFFSET ( 5, 0, .BEHIND. ) ;
#213 = DIRECTION ( 'NONE',  ( 0.000000000000000000, 0.000000000000000000, 1.000000000000000000 ) ) ;
#214 = CARTESIAN_POINT ( 'NONE',  ( 0.1990000000000000102, 2.437047130303233033E-17, 0.1419999999999999873 ) ) ;
#215 = APPROVAL_ROLE ( '' ) ;
#216 = CARTESIAN_POINT ( 'NONE',  ( 0.1990000000000000102, 2.437047130303233033E-17, 0.1419999999999999873 ) ) ;
#217 = EDGE_CURVE ( 'NONE', #201, #119, #55, .T. ) ;
#218 = DATE_TIME_ROLE ( 'classification_date' ) ;
#219 = VERTEX_POINT ( 'NONE', #143 ) ;
#220 = EDGE_LOOP ( 'NONE', ( #210, #48, #94, #151 ) ) ;
#221 = ORIENTED_EDGE ( 'NONE', *, *, #66, .T. ) ;
#222 = COORDINATED_UNIVERSAL_TIME_OFFSET ( 5, 0, .BEHIND. ) ;
#223 = CC_DESIGN_APPROVAL ( #200, ( #133 ) ) ;
#224 = CARTESIAN_POINT ( 'NONE',  ( 0.000000000000000000, 0.000000000000000000, 0.1419999999999999873 ) ) ;
#225 = EDGE_CURVE ( 'NONE', #3, #63, #194, .T. ) ;
#226 = PRODUCT ( 'GSK-DIN2-T', 'GSK-DIN2-T', '', ( #171 ) ) ;
#227 = ORIENTED_EDGE ( 'NONE', *, *, #131, .F. ) ;
#228 = LOCAL_TIME ( 16, 16, 32.00000000000000000, #207 ) ;
#229 = AXIS2_PLACEMENT_3D ( 'NONE', #20, #213, #41 ) ;
#230 = PLANE ( 'NONE',  #165 ) ;
#231 = ORIENTED_EDGE ( 'NONE', *, *, #141, .F. ) ;
#232 = PERSON_AND_ORGANIZATION ( #158, #26 ) ;
#233 =( LENGTH_UNIT ( ) NAMED_UNIT ( * ) SI_UNIT ( $, .METRE. ) );
#234 = ORIENTED_EDGE ( 'NONE', *, *, #14, .F. ) ;
#235 = SECURITY_CLASSIFICATION_LEVEL ( 'unclassified' ) ;
#236 = ORIENTED_EDGE ( 'NONE', *, *, #149, .F. ) ;
#237 = LOCAL_TIME ( 16, 16, 32.00000000000000000, #212 ) ;
#238 = AXIS2_PLACEMENT_3D ( 'NONE', #251, #196, #166 ) ;
#239 = DIRECTION ( 'NONE',  ( 0.000000000000000000, 0.000000000000000000, 1.000000000000000000 ) ) ;
#240 = FACE_BOUND ( 'NONE', #170, .T. ) ;
#241 = CIRCLE ( 'NONE', #229, 0.3375000000000000222 ) ;
#242 = AXIS2_PLACEMENT_3D ( 'NONE', #199, #120, #62 ) ;
#243 = DIRECTION ( 'NONE',  ( -1.000000000000000000, 0.000000000000000000, 0.000000000000000000 ) ) ;
#244 = CC_DESIGN_SECURITY_CLASSIFICATION ( #174, ( #133 ) ) ;
#245 = EDGE_LOOP ( 'NONE', ( #44, #172, #195, #49 ) ) ;
#246 = ADVANCED_FACE ( 'NONE', ( #86 ), #22, .F. ) ;
#247 = ORIENTED_EDGE ( 'NONE', *, *, #14, .T. ) ;
#248 = DIRECTION ( 'NONE',  ( 1.000000000000000000, 0.000000000000000000, 0.000000000000000000 ) ) ;
#249 = CYLINDRICAL_SURFACE ( 'NONE', #107, 0.1990000000000000102 ) ;
#250 = DATE_AND_TIME ( #163, #189 ) ;
#251 = CARTESIAN_POINT ( 'NONE',  ( 0.000000000000000000, 0.000000000000000000, 0.1419999999999999873 ) ) ;
#252 = CARTESIAN_POINT ( 'NONE',  ( 0.000000000000000000, 0.000000000000000000, 0.000000000000000000 ) ) ;
ENDSEC;
END-ISO-10303-21;
