ISO-10303-21;
HEADER;
FILE_DESCRIPTION (( 'STEP AP203' ),
    '1' );
FILE_NAME ('GSK-DIN5-K.STEP',
    '2025-08-27T12:00:45',
    ( '' ),
    ( '' ),
    'SwSTEP 2.0',
    'SolidWorks 2018',
    '' );
FILE_SCHEMA (( 'CONFIG_CONTROL_DESIGN' ));
ENDSEC;

DATA;
#1 = CYLINDRICAL_SURFACE ( 'NONE', #121, 0.1380000000000000115 ) ;
#2 = DIRECTION ( 'NONE',  ( 0.000000000000000000, 1.000000000000000000, 0.000000000000000000 ) ) ;
#3 = DIRECTION ( 'NONE',  ( -0.000000000000000000, -1.000000000000000000, -0.000000000000000000 ) ) ;
#4 = VECTOR ( 'NONE', #231, 39.37007874015748143 ) ;
#5 =( GEOMETRIC_REPRESENTATION_CONTEXT ( 3 ) GLOBAL_UNCERTAINTY_ASSIGNED_CONTEXT ( ( #25 ) ) GLOBAL_UNIT_ASSIGNED_CONTEXT ( ( #72, #212, #48 ) ) REPRESENTATION_CONTEXT ( 'NONE', 'WORKASPACE' ) );
#6 = DIRECTION ( 'NONE',  ( 0.000000000000000000, 1.000000000000000000, 0.000000000000000000 ) ) ;
#7 = ORIENTED_EDGE ( 'NONE', *, *, #107, .T. ) ;
#8 = ORIENTED_EDGE ( 'NONE', *, *, #143, .F. ) ;
#9 = DATE_AND_TIME ( #139, #90 ) ;
#10 = AXIS2_PLACEMENT_3D ( 'NONE', #61, #235, #114 ) ;
#11 = CYLINDRICAL_SURFACE ( 'NONE', #24, 0.1380000000000000115 ) ;
#12 = CARTESIAN_POINT ( 'NONE',  ( 0.000000000000000000, 0.07900000000000000078, -0.1380000000000000115 ) ) ;
#13 = ORIENTED_EDGE ( 'NONE', *, *, #160, .F. ) ;
#14 = CARTESIAN_POINT ( 'NONE',  ( 0.000000000000000000, 0.000000000000000000, -0.1380000000000000115 ) ) ;
#15 = CARTESIAN_POINT ( 'NONE',  ( 0.000000000000000000, 0.07900000000000000078, 0.000000000000000000 ) ) ;
#16 = ORIENTED_EDGE ( 'NONE', *, *, #190, .T. ) ;
#17 = DIRECTION ( 'NONE',  ( 0.000000000000000000, 0.000000000000000000, 1.000000000000000000 ) ) ;
#18 = COORDINATED_UNIVERSAL_TIME_OFFSET ( 5, 0, .BEHIND. ) ;
#19 = SECURITY_CLASSIFICATION_LEVEL ( 'unclassified' ) ;
#20 = APPROVAL_ROLE ( '' ) ;
#21 = PERSON_AND_ORGANIZATION_ROLE ( 'creator' ) ;
#22 = CYLINDRICAL_SURFACE ( 'NONE', #108, 0.3592500000000000693 ) ;
#23 = PERSON_AND_ORGANIZATION ( #103, #79 ) ;
#24 = AXIS2_PLACEMENT_3D ( 'NONE', #238, #131, #59 ) ;
#25 = UNCERTAINTY_MEASURE_WITH_UNIT (LENGTH_MEASURE( 1.000000000000000082E-05 ), #72, 'distance_accuracy_value', 'NONE');
#26 = FACE_OUTER_BOUND ( 'NONE', #237, .T. ) ;
#27 = ORIENTED_EDGE ( 'NONE', *, *, #173, .T. ) ;
#28 = EDGE_LOOP ( 'NONE', ( #16, #106 ) ) ;
#29 = DIRECTION ( 'NONE',  ( 0.000000000000000000, 1.000000000000000000, 0.000000000000000000 ) ) ;
#30 = CARTESIAN_POINT ( 'NONE',  ( 0.000000000000000000, 0.000000000000000000, 0.000000000000000000 ) ) ;
#31 = CARTESIAN_POINT ( 'NONE',  ( 4.399543625936867440E-17, 0.07900000000000000078, 0.3592500000000000693 ) ) ;
#32 = DIRECTION ( 'NONE',  ( 0.000000000000000000, 0.000000000000000000, 1.000000000000000000 ) ) ;
#33 = LENGTH_MEASURE_WITH_UNIT ( LENGTH_MEASURE( 0.02539999999999999897 ), #96 );
#34 = CARTESIAN_POINT ( 'NONE',  ( 0.000000000000000000, 0.07900000000000000078, 0.000000000000000000 ) ) ;
#35 = EDGE_CURVE ( 'NONE', #147, #122, #204, .T. ) ;
#36 = ADVANCED_FACE ( 'NONE', ( #26 ), #54, .T. ) ;
#37 = APPROVAL_ROLE ( '' ) ;
#38 = CARTESIAN_POINT ( 'NONE',  ( 0.000000000000000000, 0.07900000000000000078, -0.3592500000000000693 ) ) ;
#39 = CIRCLE ( 'NONE', #217, 0.1380000000000000115 ) ;
#40 = DATE_TIME_ROLE ( 'classification_date' ) ;
#41 = EDGE_LOOP ( 'NONE', ( #163, #13 ) ) ;
#42 = EDGE_LOOP ( 'NONE', ( #45, #84, #27, #187 ) ) ;
#43 = EDGE_CURVE ( 'NONE', #52, #147, #247, .T. ) ;
#44 = FACE_OUTER_BOUND ( 'NONE', #78, .T. ) ;
#45 = ORIENTED_EDGE ( 'NONE', *, *, #119, .F. ) ;
#46 = FACE_OUTER_BOUND ( 'NONE', #151, .T. ) ;
#47 = EDGE_LOOP ( 'NONE', ( #246, #183, #244, #157 ) ) ;
#48 =( NAMED_UNIT ( * ) SI_UNIT ( $, .STERADIAN. ) SOLID_ANGLE_UNIT ( ) );
#49 = EDGE_CURVE ( 'NONE', #225, #200, #243, .T. ) ;
#50 = VERTEX_POINT ( 'NONE', #113 ) ;
#51 = CARTESIAN_POINT ( 'NONE',  ( 0.000000000000000000, 0.000000000000000000, 0.000000000000000000 ) ) ;
#52 = VERTEX_POINT ( 'NONE', #234 ) ;
#53 = PERSON_AND_ORGANIZATION ( #103, #79 ) ;
#54 = CYLINDRICAL_SURFACE ( 'NONE', #117, 0.3592500000000000693 ) ;
#55 = DIRECTION ( 'NONE',  ( -0.000000000000000000, -1.000000000000000000, -0.000000000000000000 ) ) ;
#56 = EDGE_CURVE ( 'NONE', #159, #122, #86, .T. ) ;
#57 = DIRECTION ( 'NONE',  ( 0.000000000000000000, 0.000000000000000000, -1.000000000000000000 ) ) ;
#58 = ORIENTED_EDGE ( 'NONE', *, *, #56, .T. ) ;
#59 = DIRECTION ( 'NONE',  ( 0.000000000000000000, 0.000000000000000000, -1.000000000000000000 ) ) ;
#60 = APPLICATION_CONTEXT ( 'configuration controlled 3d designs of mechanical parts and assemblies' ) ;
#61 = CARTESIAN_POINT ( 'NONE',  ( 0.000000000000000000, 0.000000000000000000, 0.000000000000000000 ) ) ;
#62 = CC_DESIGN_PERSON_AND_ORGANIZATION_ASSIGNMENT ( #222, #178, ( #130 ) ) ;
#63 = APPROVAL_ROLE ( '' ) ;
#64 = PERSON_AND_ORGANIZATION ( #103, #79 ) ;
#65 = CIRCLE ( 'NONE', #203, 0.3592500000000000693 ) ;
#66 = PERSON_AND_ORGANIZATION ( #103, #79 ) ;
#67 = CC_DESIGN_PERSON_AND_ORGANIZATION_ASSIGNMENT ( #111, #76, ( #140 ) ) ;
#68 = CALENDAR_DATE ( 2025, 27, 8 ) ;
#69 = CC_DESIGN_APPROVAL ( #158, ( #130 ) ) ;
#70 = CLOSED_SHELL ( 'NONE', ( #218, #36, #241, #201, #177, #138 ) ) ;
#71 = ORIENTED_EDGE ( 'NONE', *, *, #160, .T. ) ;
#72 =( CONVERSION_BASED_UNIT ( 'INCH', #33 ) LENGTH_UNIT ( ) NAMED_UNIT ( #236 ) );
#73 = ORIENTED_EDGE ( 'NONE', *, *, #43, .F. ) ;
#74 = CARTESIAN_POINT ( 'NONE',  ( 0.000000000000000000, 0.000000000000000000, 0.000000000000000000 ) ) ;
#75 = CARTESIAN_POINT ( 'NONE',  ( 0.000000000000000000, 0.000000000000000000, 0.000000000000000000 ) ) ;
#76 = PERSON_AND_ORGANIZATION_ROLE ( 'design_owner' ) ;
#77 = AXIS2_PLACEMENT_3D ( 'NONE', #169, #194, #145 ) ;
#78 = EDGE_LOOP ( 'NONE', ( #252, #80 ) ) ;
#79 = ORGANIZATION ( 'UNSPECIFIED', 'UNSPECIFIED', '' ) ;
#80 = ORIENTED_EDGE ( 'NONE', *, *, #49, .T. ) ;
#81 = PRODUCT_DEFINITION_SHAPE ( 'NONE', 'NONE',  #184 ) ;
#82 = SHAPE_DEFINITION_REPRESENTATION ( #81, #144 ) ;
#83 = CIRCLE ( 'NONE', #146, 0.3592500000000000693 ) ;
#84 = ORIENTED_EDGE ( 'NONE', *, *, #179, .F. ) ;
#85 = CC_DESIGN_PERSON_AND_ORGANIZATION_ASSIGNMENT ( #64, #98, ( #155 ) ) ;
#86 = LINE ( 'NONE', #12, #127 ) ;
#87 = ORIENTED_EDGE ( 'NONE', *, *, #173, .F. ) ;
#88 = CC_DESIGN_APPROVAL ( #95, ( #184 ) ) ;
#89 = PLANE ( 'NONE',  #77 ) ;
#90 = LOCAL_TIME ( 8, 0, 45.00000000000000000, #105 ) ;
#91 = CARTESIAN_POINT ( 'NONE',  ( 0.000000000000000000, 0.07900000000000000078, 0.000000000000000000 ) ) ;
#92 = CARTESIAN_POINT ( 'NONE',  ( 1.690012582823347382E-17, 0.07900000000000000078, 0.1380000000000000115 ) ) ;
#93 = DIRECTION ( 'NONE',  ( -0.000000000000000000, -1.000000000000000000, -0.000000000000000000 ) ) ;
#94 = CARTESIAN_POINT ( 'NONE',  ( 4.399543625936867440E-17, 0.07900000000000000078, 0.3592500000000000693 ) ) ;
#95 = APPROVAL ( #154, 'UNSPECIFIED' ) ;
#96 =( LENGTH_UNIT ( ) NAMED_UNIT ( * ) SI_UNIT ( $, .METRE. ) );
#97 = FACE_BOUND ( 'NONE', #206, .T. ) ;
#98 = PERSON_AND_ORGANIZATION_ROLE ( 'classification_officer' ) ;
#99 = CARTESIAN_POINT ( 'NONE',  ( 0.000000000000000000, 0.07900000000000000078, 0.000000000000000000 ) ) ;
#100 = ORIENTED_EDGE ( 'NONE', *, *, #107, .F. ) ;
#101 = APPROVAL ( #115, 'UNSPECIFIED' ) ;
#102 = CIRCLE ( 'NONE', #199, 0.1380000000000000115 ) ;
#103 = PERSON ( 'UNSPECIFIED', 'UNSPECIFIED', 'UNSPECIFIED', ('UNSPECIFIED'), ('UNSPECIFIED'), ('UNSPECIFIED') ) ;
#104 = CC_DESIGN_PERSON_AND_ORGANIZATION_ASSIGNMENT ( #124, #21, ( #184 ) ) ;
#105 = COORDINATED_UNIVERSAL_TIME_OFFSET ( 5, 0, .BEHIND. ) ;
#106 = ORIENTED_EDGE ( 'NONE', *, *, #35, .T. ) ;
#107 = EDGE_CURVE ( 'NONE', #52, #159, #102, .T. ) ;
#108 = AXIS2_PLACEMENT_3D ( 'NONE', #34, #93, #170 ) ;
#109 = CARTESIAN_POINT ( 'NONE',  ( 0.000000000000000000, 0.000000000000000000, 0.000000000000000000 ) ) ;
#110 = DIRECTION ( 'NONE',  ( 0.000000000000000000, -0.000000000000000000, 1.000000000000000000 ) ) ;
#111 = PERSON_AND_ORGANIZATION ( #103, #79 ) ;
#112 = DIRECTION ( 'NONE',  ( 0.000000000000000000, 1.000000000000000000, 0.000000000000000000 ) ) ;
#113 = CARTESIAN_POINT ( 'NONE',  ( 0.000000000000000000, 0.000000000000000000, -0.3592500000000000693 ) ) ;
#114 = DIRECTION ( 'NONE',  ( 1.000000000000000000, 0.000000000000000000, 0.000000000000000000 ) ) ;
#115 = APPROVAL_STATUS ( 'not_yet_approved' ) ;
#116 = DIRECTION ( 'NONE',  ( 0.000000000000000000, 1.000000000000000000, 0.000000000000000000 ) ) ;
#117 = AXIS2_PLACEMENT_3D ( 'NONE', #208, #192, #250 ) ;
#118 = LINE ( 'NONE', #38, #240 ) ;
#119 = EDGE_CURVE ( 'NONE', #225, #207, #229, .T. ) ;
#120 = LOCAL_TIME ( 8, 0, 45.00000000000000000, #226 ) ;
#121 = AXIS2_PLACEMENT_3D ( 'NONE', #153, #152, #57 ) ;
#122 = VERTEX_POINT ( 'NONE', #14 ) ;
#123 = DIRECTION ( 'NONE',  ( 0.000000000000000000, 0.000000000000000000, 1.000000000000000000 ) ) ;
#124 = PERSON_AND_ORGANIZATION ( #103, #79 ) ;
#125 = CC_DESIGN_DATE_AND_TIME_ASSIGNMENT ( #136, #40, ( #155 ) ) ;
#126 = CC_DESIGN_DATE_AND_TIME_ASSIGNMENT ( #162, #197, ( #184 ) ) ;
#127 = VECTOR ( 'NONE', #3, 39.37007874015748143 ) ;
#128 = VECTOR ( 'NONE', #55, 39.37007874015748143 ) ;
#129 = DIRECTION ( 'NONE',  ( 0.000000000000000000, 0.000000000000000000, 1.000000000000000000 ) ) ;
#130 = PRODUCT_DEFINITION_FORMATION_WITH_SPECIFIED_SOURCE ( 'ANY', '', #140, .NOT_KNOWN. ) ;
#131 = DIRECTION ( 'NONE',  ( -0.000000000000000000, -1.000000000000000000, -0.000000000000000000 ) ) ;
#132 = APPLICATION_CONTEXT ( 'configuration controlled 3d designs of mechanical parts and assemblies' ) ;
#133 = DIRECTION ( 'NONE',  ( 0.000000000000000000, 0.000000000000000000, 1.000000000000000000 ) ) ;
#134 = ORIENTED_EDGE ( 'NONE', *, *, #35, .F. ) ;
#135 = APPROVAL_STATUS ( 'not_yet_approved' ) ;
#136 = DATE_AND_TIME ( #242, #220 ) ;
#137 = CIRCLE ( 'NONE', #245, 0.3592500000000000693 ) ;
#138 = ADVANCED_FACE ( 'NONE', ( #46 ), #1, .F. ) ;
#139 = CALENDAR_DATE ( 2025, 27, 8 ) ;
#140 = PRODUCT ( 'GSK-DIN5-K', 'GSK-DIN5-K', '', ( #175 ) ) ;
#141 = CC_DESIGN_SECURITY_CLASSIFICATION ( #155, ( #130 ) ) ;
#142 = FACE_OUTER_BOUND ( 'NONE', #47, .T. ) ;
#143 = EDGE_CURVE ( 'NONE', #159, #52, #181, .T. ) ;
#144 = ADVANCED_BREP_SHAPE_REPRESENTATION ( 'GSK-DIN5-K', ( #191, #10 ), #5 ) ;
#145 = DIRECTION ( 'NONE',  ( 0.000000000000000000, -0.000000000000000000, 1.000000000000000000 ) ) ;
#146 = AXIS2_PLACEMENT_3D ( 'NONE', #74, #214, #215 ) ;
#147 = VERTEX_POINT ( 'NONE', #149 ) ;
#148 = PRODUCT_RELATED_PRODUCT_CATEGORY ( 'detail', '', ( #140 ) ) ;
#149 = CARTESIAN_POINT ( 'NONE',  ( 1.690012582823347382E-17, 0.000000000000000000, 0.1380000000000000115 ) ) ;
#150 = DATE_AND_TIME ( #186, #180 ) ;
#151 = EDGE_LOOP ( 'NONE', ( #73, #7, #58, #134 ) ) ;
#152 = DIRECTION ( 'NONE',  ( -0.000000000000000000, -1.000000000000000000, -0.000000000000000000 ) ) ;
#153 = CARTESIAN_POINT ( 'NONE',  ( 0.000000000000000000, 0.07900000000000000078, 0.000000000000000000 ) ) ;
#154 = APPROVAL_STATUS ( 'not_yet_approved' ) ;
#155 = SECURITY_CLASSIFICATION ( '', '', #19 ) ;
#156 = AXIS2_PLACEMENT_3D ( 'NONE', #213, #230, #32 ) ;
#157 = ORIENTED_EDGE ( 'NONE', *, *, #56, .F. ) ;
#158 = APPROVAL ( #135, 'UNSPECIFIED' ) ;
#159 = VERTEX_POINT ( 'NONE', #195 ) ;
#160 = EDGE_CURVE ( 'NONE', #207, #50, #65, .T. ) ;
#161 = FACE_OUTER_BOUND ( 'NONE', #41, .T. ) ;
#162 = DATE_AND_TIME ( #68, #223 ) ;
#163 = ORIENTED_EDGE ( 'NONE', *, *, #174, .F. ) ;
#164 = CARTESIAN_POINT ( 'NONE',  ( 4.399543625936867440E-17, 0.000000000000000000, 0.3592500000000000693 ) ) ;
#165 = DIRECTION ( 'NONE',  ( 0.000000000000000000, 1.000000000000000000, 0.000000000000000000 ) ) ;
#166 = DIRECTION ( 'NONE',  ( 0.000000000000000000, 0.000000000000000000, 1.000000000000000000 ) ) ;
#167 = COORDINATED_UNIVERSAL_TIME_OFFSET ( 5, 0, .BEHIND. ) ;
#168 = FACE_BOUND ( 'NONE', #28, .T. ) ;
#169 = CARTESIAN_POINT ( 'NONE',  ( 0.000000000000000000, 0.07900000000000000078, 0.000000000000000000 ) ) ;
#170 = DIRECTION ( 'NONE',  ( 0.000000000000000000, 0.000000000000000000, -1.000000000000000000 ) ) ;
#171 = COORDINATED_UNIVERSAL_TIME_OFFSET ( 5, 0, .BEHIND. ) ;
#172 = APPROVAL_PERSON_ORGANIZATION ( #23, #158, #63 ) ;
#173 = EDGE_CURVE ( 'NONE', #200, #50, #118, .T. ) ;
#174 = EDGE_CURVE ( 'NONE', #50, #207, #83, .T. ) ;
#175 = MECHANICAL_CONTEXT ( 'NONE', #132, 'mechanical' ) ;
#176 = DIRECTION ( 'NONE',  ( 0.000000000000000000, 0.000000000000000000, 1.000000000000000000 ) ) ;
#177 = ADVANCED_FACE ( 'NONE', ( #202 ), #22, .T. ) ;
#178 = PERSON_AND_ORGANIZATION_ROLE ( 'design_supplier' ) ;
#179 = EDGE_CURVE ( 'NONE', #200, #225, #137, .T. ) ;
#180 = LOCAL_TIME ( 8, 0, 45.00000000000000000, #171 ) ;
#181 = CIRCLE ( 'NONE', #156, 0.1380000000000000115 ) ;
#182 = APPROVAL_DATE_TIME ( #9, #95 ) ;
#183 = ORIENTED_EDGE ( 'NONE', *, *, #43, .T. ) ;
#184 = PRODUCT_DEFINITION ( 'UNKNOWN', '', #130, #196 ) ;
#185 = ORIENTED_EDGE ( 'NONE', *, *, #49, .F. ) ;
#186 = CALENDAR_DATE ( 2025, 27, 8 ) ;
#187 = ORIENTED_EDGE ( 'NONE', *, *, #174, .T. ) ;
#188 = AXIS2_PLACEMENT_3D ( 'NONE', #30, #165, #166 ) ;
#189 = APPROVAL_DATE_TIME ( #205, #158 ) ;
#190 = EDGE_CURVE ( 'NONE', #122, #147, #39, .T. ) ;
#191 = MANIFOLD_SOLID_BREP ( 'Boss-Extrude1', #70 ) ;
#192 = DIRECTION ( 'NONE',  ( -0.000000000000000000, -1.000000000000000000, -0.000000000000000000 ) ) ;
#193 = ORIENTED_EDGE ( 'NONE', *, *, #119, .T. ) ;
#194 = DIRECTION ( 'NONE',  ( 0.000000000000000000, 1.000000000000000000, 0.000000000000000000 ) ) ;
#195 = CARTESIAN_POINT ( 'NONE',  ( 0.000000000000000000, 0.07900000000000000078, -0.1380000000000000115 ) ) ;
#196 = DESIGN_CONTEXT ( 'detailed design', #60, 'design' ) ;
#197 = DATE_TIME_ROLE ( 'creation_date' ) ;
#198 = DIRECTION ( 'NONE',  ( -0.000000000000000000, -1.000000000000000000, -0.000000000000000000 ) ) ;
#199 = AXIS2_PLACEMENT_3D ( 'NONE', #91, #2, #129 ) ;
#200 = VERTEX_POINT ( 'NONE', #249 ) ;
#201 = ADVANCED_FACE ( 'NONE', ( #161, #168 ), #227, .F. ) ;
#202 = FACE_OUTER_BOUND ( 'NONE', #42, .T. ) ;
#203 = AXIS2_PLACEMENT_3D ( 'NONE', #75, #6, #176 ) ;
#204 = CIRCLE ( 'NONE', #188, 0.1380000000000000115 ) ;
#205 = DATE_AND_TIME ( #251, #120 ) ;
#206 = EDGE_LOOP ( 'NONE', ( #8, #100 ) ) ;
#207 = VERTEX_POINT ( 'NONE', #164 ) ;
#208 = CARTESIAN_POINT ( 'NONE',  ( 0.000000000000000000, 0.07900000000000000078, 0.000000000000000000 ) ) ;
#209 = AXIS2_PLACEMENT_3D ( 'NONE', #15, #112, #17 ) ;
#210 = APPROVAL_DATE_TIME ( #150, #101 ) ;
#211 = APPROVAL_PERSON_ORGANIZATION ( #233, #95, #37 ) ;
#212 =( NAMED_UNIT ( * ) PLANE_ANGLE_UNIT ( ) SI_UNIT ( $, .RADIAN. ) );
#213 = CARTESIAN_POINT ( 'NONE',  ( 0.000000000000000000, 0.07900000000000000078, 0.000000000000000000 ) ) ;
#214 = DIRECTION ( 'NONE',  ( 0.000000000000000000, 1.000000000000000000, 0.000000000000000000 ) ) ;
#215 = DIRECTION ( 'NONE',  ( 0.000000000000000000, 0.000000000000000000, 1.000000000000000000 ) ) ;
#216 = APPLICATION_PROTOCOL_DEFINITION ( 'international standard', 'config_control_design', 1994, #132 ) ;
#217 = AXIS2_PLACEMENT_3D ( 'NONE', #51, #248, #123 ) ;
#218 = ADVANCED_FACE ( 'NONE', ( #142 ), #11, .F. ) ;
#219 = PERSON_AND_ORGANIZATION_ROLE ( 'creator' ) ;
#220 = LOCAL_TIME ( 8, 0, 45.00000000000000000, #167 ) ;
#221 = CC_DESIGN_PERSON_AND_ORGANIZATION_ASSIGNMENT ( #53, #219, ( #130 ) ) ;
#222 = PERSON_AND_ORGANIZATION ( #103, #79 ) ;
#223 = LOCAL_TIME ( 8, 0, 45.00000000000000000, #18 ) ;
#224 = CC_DESIGN_APPROVAL ( #101, ( #155 ) ) ;
#225 = VERTEX_POINT ( 'NONE', #94 ) ;
#226 = COORDINATED_UNIVERSAL_TIME_OFFSET ( 5, 0, .BEHIND. ) ;
#227 = PLANE ( 'NONE',  #228 ) ;
#228 = AXIS2_PLACEMENT_3D ( 'NONE', #109, #29, #110 ) ;
#229 = LINE ( 'NONE', #31, #4 ) ;
#230 = DIRECTION ( 'NONE',  ( 0.000000000000000000, 1.000000000000000000, 0.000000000000000000 ) ) ;
#231 = DIRECTION ( 'NONE',  ( -0.000000000000000000, -1.000000000000000000, -0.000000000000000000 ) ) ;
#232 = APPROVAL_PERSON_ORGANIZATION ( #66, #101, #20 ) ;
#233 = PERSON_AND_ORGANIZATION ( #103, #79 ) ;
#234 = CARTESIAN_POINT ( 'NONE',  ( 1.690012582823347382E-17, 0.07900000000000000078, 0.1380000000000000115 ) ) ;
#235 = DIRECTION ( 'NONE',  ( 0.000000000000000000, 0.000000000000000000, 1.000000000000000000 ) ) ;
#236 = DIMENSIONAL_EXPONENTS ( 1.000000000000000000, 0.000000000000000000, 0.000000000000000000, 0.000000000000000000, 0.000000000000000000, 0.000000000000000000, 0.000000000000000000 ) ;
#237 = EDGE_LOOP ( 'NONE', ( #185, #193, #71, #87 ) ) ;
#238 = CARTESIAN_POINT ( 'NONE',  ( 0.000000000000000000, 0.07900000000000000078, 0.000000000000000000 ) ) ;
#239 = APPLICATION_PROTOCOL_DEFINITION ( 'international standard', 'config_control_design', 1994, #60 ) ;
#240 = VECTOR ( 'NONE', #198, 39.37007874015748143 ) ;
#241 = ADVANCED_FACE ( 'NONE', ( #44, #97 ), #89, .T. ) ;
#242 = CALENDAR_DATE ( 2025, 27, 8 ) ;
#243 = CIRCLE ( 'NONE', #209, 0.3592500000000000693 ) ;
#244 = ORIENTED_EDGE ( 'NONE', *, *, #190, .F. ) ;
#245 = AXIS2_PLACEMENT_3D ( 'NONE', #99, #116, #133 ) ;
#246 = ORIENTED_EDGE ( 'NONE', *, *, #143, .T. ) ;
#247 = LINE ( 'NONE', #92, #128 ) ;
#248 = DIRECTION ( 'NONE',  ( 0.000000000000000000, 1.000000000000000000, 0.000000000000000000 ) ) ;
#249 = CARTESIAN_POINT ( 'NONE',  ( 0.000000000000000000, 0.07900000000000000078, -0.3592500000000000693 ) ) ;
#250 = DIRECTION ( 'NONE',  ( 0.000000000000000000, 0.000000000000000000, -1.000000000000000000 ) ) ;
#251 = CALENDAR_DATE ( 2025, 27, 8 ) ;
#252 = ORIENTED_EDGE ( 'NONE', *, *, #179, .T. ) ;
ENDSEC;
END-ISO-10303-21;
