ISO-10303-21;
HEADER;
FILE_DESCRIPTION (( 'STEP AP203' ),
    '1' );
FILE_NAME ('GSK-DIN5-T.STEP',
    '2025-08-27T12:10:14',
    ( '' ),
    ( '' ),
    'SwSTEP 2.0',
    'SolidWorks 2018',
    '' );
FILE_SCHEMA (( 'CONFIG_CONTROL_DESIGN' ));
ENDSEC;

DATA;
#1 =( NAMED_UNIT ( * ) SI_UNIT ( $, .STERADIAN. ) SOLID_ANGLE_UNIT ( ) );
#2 = DIRECTION ( 'NONE',  ( 1.000000000000000000, 0.000000000000000000, 0.000000000000000000 ) ) ;
#3 = PERSON_AND_ORGANIZATION_ROLE ( 'design_owner' ) ;
#4 = DIRECTION ( 'NONE',  ( -0.000000000000000000, -1.000000000000000000, -0.000000000000000000 ) ) ;
#5 = AXIS2_PLACEMENT_3D ( 'NONE', #116, #39, #182 ) ;
#6 = DATE_AND_TIME ( #57, #34 ) ;
#7 =( LENGTH_UNIT ( ) NAMED_UNIT ( * ) SI_UNIT ( $, .METRE. ) );
#8 = ORGANIZATION ( 'UNSPECIFIED', 'UNSPECIFIED', '' ) ;
#9 = CIRCLE ( 'NONE', #184, 0.3592500000000000693 ) ;
#10 = EDGE_CURVE ( 'NONE', #213, #157, #43, .T. ) ;
#11 = DATE_AND_TIME ( #91, #187 ) ;
#12 = ORIENTED_EDGE ( 'NONE', *, *, #152, .F. ) ;
#13 = ADVANCED_BREP_SHAPE_REPRESENTATION ( 'GSK-DIN5-T', ( #212, #41 ), #14 ) ;
#14 =( GEOMETRIC_REPRESENTATION_CONTEXT ( 3 ) GLOBAL_UNCERTAINTY_ASSIGNED_CONTEXT ( ( #114 ) ) GLOBAL_UNIT_ASSIGNED_CONTEXT ( ( #185, #159, #1 ) ) REPRESENTATION_CONTEXT ( 'NONE', 'WORKASPACE' ) );
#15 = VERTEX_POINT ( 'NONE', #246 ) ;
#16 = ORIENTED_EDGE ( 'NONE', *, *, #19, .F. ) ;
#17 = CARTESIAN_POINT ( 'NONE',  ( 0.000000000000000000, 0.07900000000000000078, -0.3592500000000000693 ) ) ;
#18 = PERSON_AND_ORGANIZATION_ROLE ( 'classification_officer' ) ;
#19 = EDGE_CURVE ( 'NONE', #157, #211, #120, .T. ) ;
#20 = SECURITY_CLASSIFICATION_LEVEL ( 'unclassified' ) ;
#21 = ORIENTED_EDGE ( 'NONE', *, *, #238, .T. ) ;
#22 = DIRECTION ( 'NONE',  ( 0.000000000000000000, 0.000000000000000000, 1.000000000000000000 ) ) ;
#23 = DATE_TIME_ROLE ( 'classification_date' ) ;
#24 = AXIS2_PLACEMENT_3D ( 'NONE', #203, #61, #40 ) ;
#25 = ORIENTED_EDGE ( 'NONE', *, *, #26, .T. ) ;
#26 = EDGE_CURVE ( 'NONE', #211, #157, #48, .T. ) ;
#27 = LENGTH_MEASURE_WITH_UNIT ( LENGTH_MEASURE( 0.02539999999999999897 ), #7 );
#28 = ORIENTED_EDGE ( 'NONE', *, *, #52, .F. ) ;
#29 = LOCAL_TIME ( 8, 10, 14.00000000000000000, #51 ) ;
#30 = ORIENTED_EDGE ( 'NONE', *, *, #31, .T. ) ;
#31 = EDGE_CURVE ( 'NONE', #123, #208, #9, .T. ) ;
#32 = DIRECTION ( 'NONE',  ( -0.000000000000000000, -1.000000000000000000, -0.000000000000000000 ) ) ;
#33 = CARTESIAN_POINT ( 'NONE',  ( 0.000000000000000000, 0.07900000000000000078, 0.000000000000000000 ) ) ;
#34 = LOCAL_TIME ( 8, 10, 14.00000000000000000, #97 ) ;
#35 = EDGE_LOOP ( 'NONE', ( #234, #128, #70, #183 ) ) ;
#36 = EDGE_LOOP ( 'NONE', ( #143, #247 ) ) ;
#37 = EDGE_CURVE ( 'NONE', #208, #123, #148, .T. ) ;
#38 = APPROVAL_STATUS ( 'not_yet_approved' ) ;
#39 = DIRECTION ( 'NONE',  ( 0.000000000000000000, 1.000000000000000000, 0.000000000000000000 ) ) ;
#40 = DIRECTION ( 'NONE',  ( 0.000000000000000000, 0.000000000000000000, -1.000000000000000000 ) ) ;
#41 = AXIS2_PLACEMENT_3D ( 'NONE', #118, #239, #2 ) ;
#42 = LOCAL_TIME ( 8, 10, 14.00000000000000000, #150 ) ;
#43 = LINE ( 'NONE', #225, #171 ) ;
#44 = PERSON_AND_ORGANIZATION ( #72, #8 ) ;
#45 = CC_DESIGN_PERSON_AND_ORGANIZATION_ASSIGNMENT ( #145, #139, ( #104 ) ) ;
#46 = CARTESIAN_POINT ( 'NONE',  ( 0.000000000000000000, 0.07900000000000000078, 0.000000000000000000 ) ) ;
#47 = APPROVAL_DATE_TIME ( #6, #122 ) ;
#48 = CIRCLE ( 'NONE', #249, 0.1380000000000000115 ) ;
#49 = EDGE_CURVE ( 'NONE', #78, #213, #62, .T. ) ;
#50 = ADVANCED_FACE ( 'NONE', ( #112 ), #226, .T. ) ;
#51 = COORDINATED_UNIVERSAL_TIME_OFFSET ( 5, 0, .BEHIND. ) ;
#52 = EDGE_CURVE ( 'NONE', #15, #205, #142, .T. ) ;
#53 = FACE_BOUND ( 'NONE', #163, .T. ) ;
#54 = ADVANCED_FACE ( 'NONE', ( #106 ), #199, .T. ) ;
#55 = CARTESIAN_POINT ( 'NONE',  ( 4.399543625936867440E-17, 0.07900000000000000078, 0.3592500000000000693 ) ) ;
#56 = DIRECTION ( 'NONE',  ( 0.000000000000000000, 0.000000000000000000, -1.000000000000000000 ) ) ;
#57 = CALENDAR_DATE ( 2025, 27, 8 ) ;
#58 = APPLICATION_PROTOCOL_DEFINITION ( 'international standard', 'config_control_design', 1994, #119 ) ;
#59 = CARTESIAN_POINT ( 'NONE',  ( 1.690012582823347382E-17, 0.07900000000000000078, 0.1380000000000000115 ) ) ;
#60 = AXIS2_PLACEMENT_3D ( 'NONE', #250, #232, #129 ) ;
#61 = DIRECTION ( 'NONE',  ( -0.000000000000000000, -1.000000000000000000, -0.000000000000000000 ) ) ;
#62 = CIRCLE ( 'NONE', #76, 0.1380000000000000115 ) ;
#63 = COORDINATED_UNIVERSAL_TIME_OFFSET ( 5, 0, .BEHIND. ) ;
#64 = EDGE_CURVE ( 'NONE', #15, #123, #252, .T. ) ;
#65 = DIRECTION ( 'NONE',  ( 0.000000000000000000, 1.000000000000000000, 0.000000000000000000 ) ) ;
#66 = AXIS2_PLACEMENT_3D ( 'NONE', #138, #223, #22 ) ;
#67 = DIRECTION ( 'NONE',  ( 0.000000000000000000, 0.000000000000000000, 1.000000000000000000 ) ) ;
#68 = PERSON_AND_ORGANIZATION ( #72, #8 ) ;
#69 = CC_DESIGN_DATE_AND_TIME_ASSIGNMENT ( #11, #121, ( #104 ) ) ;
#70 = ORIENTED_EDGE ( 'NONE', *, *, #168, .T. ) ;
#71 = CARTESIAN_POINT ( 'NONE',  ( 0.000000000000000000, 0.07900000000000000078, -0.3592500000000000693 ) ) ;
#72 = PERSON ( 'UNSPECIFIED', 'UNSPECIFIED', 'UNSPECIFIED', ('UNSPECIFIED'), ('UNSPECIFIED'), ('UNSPECIFIED') ) ;
#73 = APPROVAL_DATE_TIME ( #109, #84 ) ;
#74 = ORIENTED_EDGE ( 'NONE', *, *, #31, .F. ) ;
#75 = CARTESIAN_POINT ( 'NONE',  ( 0.000000000000000000, 0.000000000000000000, -0.1380000000000000115 ) ) ;
#76 = AXIS2_PLACEMENT_3D ( 'NONE', #46, #65, #92 ) ;
#77 = LINE ( 'NONE', #17, #136 ) ;
#78 = VERTEX_POINT ( 'NONE', #220 ) ;
#79 = APPLICATION_PROTOCOL_DEFINITION ( 'international standard', 'config_control_design', 1994, #96 ) ;
#80 = EDGE_LOOP ( 'NONE', ( #231, #21, #179, #16 ) ) ;
#81 = CALENDAR_DATE ( 2025, 27, 8 ) ;
#82 = CIRCLE ( 'NONE', #66, 0.3592500000000000693 ) ;
#83 = ORIENTED_EDGE ( 'NONE', *, *, #49, .T. ) ;
#84 = APPROVAL ( #140, 'UNSPECIFIED' ) ;
#85 = CARTESIAN_POINT ( 'NONE',  ( 0.000000000000000000, 0.000000000000000000, 0.000000000000000000 ) ) ;
#86 = PERSON_AND_ORGANIZATION ( #72, #8 ) ;
#87 = VECTOR ( 'NONE', #195, 39.37007874015748143 ) ;
#88 = CLOSED_SHELL ( 'NONE', ( #248, #50, #126, #174, #54, #151 ) ) ;
#89 = CARTESIAN_POINT ( 'NONE',  ( 0.000000000000000000, 0.07900000000000000078, 0.000000000000000000 ) ) ;
#90 = AXIS2_PLACEMENT_3D ( 'NONE', #98, #235, #237 ) ;
#91 = CALENDAR_DATE ( 2025, 27, 8 ) ;
#92 = DIRECTION ( 'NONE',  ( 0.000000000000000000, 0.000000000000000000, 1.000000000000000000 ) ) ;
#93 = FACE_BOUND ( 'NONE', #36, .T. ) ;
#94 = DIRECTION ( 'NONE',  ( 0.000000000000000000, 1.000000000000000000, 0.000000000000000000 ) ) ;
#95 = APPROVAL_PERSON_ORGANIZATION ( #102, #111, #180 ) ;
#96 = APPLICATION_CONTEXT ( 'configuration controlled 3d designs of mechanical parts and assemblies' ) ;
#97 = COORDINATED_UNIVERSAL_TIME_OFFSET ( 5, 0, .BEHIND. ) ;
#98 = CARTESIAN_POINT ( 'NONE',  ( 0.000000000000000000, 0.07900000000000000078, 0.000000000000000000 ) ) ;
#99 = CC_DESIGN_DATE_AND_TIME_ASSIGNMENT ( #135, #23, ( #164 ) ) ;
#100 = ORIENTED_EDGE ( 'NONE', *, *, #52, .T. ) ;
#101 = PERSON_AND_ORGANIZATION ( #72, #8 ) ;
#102 = PERSON_AND_ORGANIZATION ( #72, #8 ) ;
#103 = FACE_OUTER_BOUND ( 'NONE', #80, .T. ) ;
#104 = PRODUCT_DEFINITION ( 'UNKNOWN', '', #117, #181 ) ;
#105 = VECTOR ( 'NONE', #196, 39.37007874015748143 ) ;
#106 = FACE_OUTER_BOUND ( 'NONE', #35, .T. ) ;
#107 = CC_DESIGN_PERSON_AND_ORGANIZATION_ASSIGNMENT ( #44, #3, ( #197 ) ) ;
#108 = EDGE_LOOP ( 'NONE', ( #28, #172, #30, #156 ) ) ;
#109 = DATE_AND_TIME ( #165, #221 ) ;
#110 = DIRECTION ( 'NONE',  ( 0.000000000000000000, 0.000000000000000000, 1.000000000000000000 ) ) ;
#111 = APPROVAL ( #38, 'UNSPECIFIED' ) ;
#112 = FACE_OUTER_BOUND ( 'NONE', #108, .T. ) ;
#113 = CARTESIAN_POINT ( 'NONE',  ( 0.000000000000000000, 0.07900000000000000078, 0.000000000000000000 ) ) ;
#114 = UNCERTAINTY_MEASURE_WITH_UNIT (LENGTH_MEASURE( 1.000000000000000082E-05 ), #185, 'distance_accuracy_value', 'NONE');
#115 = ORIENTED_EDGE ( 'NONE', *, *, #37, .F. ) ;
#116 = CARTESIAN_POINT ( 'NONE',  ( 0.000000000000000000, 0.000000000000000000, 0.000000000000000000 ) ) ;
#117 = PRODUCT_DEFINITION_FORMATION_WITH_SPECIFIED_SOURCE ( 'ANY', '', #197, .NOT_KNOWN. ) ;
#118 = CARTESIAN_POINT ( 'NONE',  ( 0.000000000000000000, 0.000000000000000000, 0.000000000000000000 ) ) ;
#119 = APPLICATION_CONTEXT ( 'configuration controlled 3d designs of mechanical parts and assemblies' ) ;
#120 = CIRCLE ( 'NONE', #224, 0.1380000000000000115 ) ;
#121 = DATE_TIME_ROLE ( 'creation_date' ) ;
#122 = APPROVAL ( #241, 'UNSPECIFIED' ) ;
#123 = VERTEX_POINT ( 'NONE', #177 ) ;
#124 = EDGE_LOOP ( 'NONE', ( #83, #219, #228, #12 ) ) ;
#125 = CC_DESIGN_SECURITY_CLASSIFICATION ( #164, ( #117 ) ) ;
#126 = ADVANCED_FACE ( 'NONE', ( #141, #93 ), #176, .T. ) ;
#127 = CC_DESIGN_PERSON_AND_ORGANIZATION_ASSIGNMENT ( #68, #202, ( #117 ) ) ;
#128 = ORIENTED_EDGE ( 'NONE', *, *, #214, .F. ) ;
#129 = DIRECTION ( 'NONE',  ( 0.000000000000000000, 0.000000000000000000, 1.000000000000000000 ) ) ;
#130 = DIRECTION ( 'NONE',  ( 0.000000000000000000, 0.000000000000000000, -1.000000000000000000 ) ) ;
#131 = CC_DESIGN_APPROVAL ( #122, ( #104 ) ) ;
#132 = COORDINATED_UNIVERSAL_TIME_OFFSET ( 5, 0, .BEHIND. ) ;
#133 = ORIENTED_EDGE ( 'NONE', *, *, #214, .T. ) ;
#134 = APPROVAL_ROLE ( '' ) ;
#135 = DATE_AND_TIME ( #81, #42 ) ;
#136 = VECTOR ( 'NONE', #4, 39.37007874015748143 ) ;
#137 = APPROVAL_ROLE ( '' ) ;
#138 = CARTESIAN_POINT ( 'NONE',  ( 0.000000000000000000, 0.07900000000000000078, 0.000000000000000000 ) ) ;
#139 = PERSON_AND_ORGANIZATION_ROLE ( 'creator' ) ;
#140 = APPROVAL_STATUS ( 'not_yet_approved' ) ;
#141 = FACE_OUTER_BOUND ( 'NONE', #166, .T. ) ;
#142 = CIRCLE ( 'NONE', #178, 0.3592500000000000693 ) ;
#143 = ORIENTED_EDGE ( 'NONE', *, *, #49, .F. ) ;
#144 = CC_DESIGN_PERSON_AND_ORGANIZATION_ASSIGNMENT ( #201, #18, ( #164 ) ) ;
#145 = PERSON_AND_ORGANIZATION ( #72, #8 ) ;
#146 = DIRECTION ( 'NONE',  ( 0.000000000000000000, 0.000000000000000000, 1.000000000000000000 ) ) ;
#147 = FACE_OUTER_BOUND ( 'NONE', #124, .T. ) ;
#148 = CIRCLE ( 'NONE', #60, 0.3592500000000000693 ) ;
#149 = CC_DESIGN_APPROVAL ( #84, ( #117 ) ) ;
#150 = COORDINATED_UNIVERSAL_TIME_OFFSET ( 5, 0, .BEHIND. ) ;
#151 = ADVANCED_FACE ( 'NONE', ( #103 ), #210, .F. ) ;
#152 = EDGE_CURVE ( 'NONE', #78, #211, #190, .T. ) ;
#153 = DIRECTION ( 'NONE',  ( -0.000000000000000000, -1.000000000000000000, -0.000000000000000000 ) ) ;
#154 = DIRECTION ( 'NONE',  ( 0.000000000000000000, 1.000000000000000000, 0.000000000000000000 ) ) ;
#155 = EDGE_LOOP ( 'NONE', ( #115, #74 ) ) ;
#156 = ORIENTED_EDGE ( 'NONE', *, *, #168, .F. ) ;
#157 = VERTEX_POINT ( 'NONE', #200 ) ;
#158 = CC_DESIGN_APPROVAL ( #111, ( #164 ) ) ;
#159 =( NAMED_UNIT ( * ) PLANE_ANGLE_UNIT ( ) SI_UNIT ( $, .RADIAN. ) );
#160 = PERSON_AND_ORGANIZATION_ROLE ( 'creator' ) ;
#161 = APPROVAL_PERSON_ORGANIZATION ( #218, #122, #134 ) ;
#162 = PLANE ( 'NONE',  #5 ) ;
#163 = EDGE_LOOP ( 'NONE', ( #25, #191 ) ) ;
#164 = SECURITY_CLASSIFICATION ( '', '', #20 ) ;
#165 = CALENDAR_DATE ( 2025, 27, 8 ) ;
#166 = EDGE_LOOP ( 'NONE', ( #133, #100 ) ) ;
#167 = DIRECTION ( 'NONE',  ( 0.000000000000000000, 0.000000000000000000, -1.000000000000000000 ) ) ;
#168 = EDGE_CURVE ( 'NONE', #205, #208, #77, .T. ) ;
#169 = CARTESIAN_POINT ( 'NONE',  ( 0.000000000000000000, 0.07900000000000000078, 0.000000000000000000 ) ) ;
#170 = CIRCLE ( 'NONE', #90, 0.1380000000000000115 ) ;
#171 = VECTOR ( 'NONE', #251, 39.37007874015748143 ) ;
#172 = ORIENTED_EDGE ( 'NONE', *, *, #64, .T. ) ;
#173 = PRODUCT_RELATED_PRODUCT_CATEGORY ( 'detail', '', ( #197 ) ) ;
#174 = ADVANCED_FACE ( 'NONE', ( #244, #53 ), #162, .F. ) ;
#175 = DIRECTION ( 'NONE',  ( 0.000000000000000000, 1.000000000000000000, 0.000000000000000000 ) ) ;
#176 = PLANE ( 'NONE',  #209 ) ;
#177 = CARTESIAN_POINT ( 'NONE',  ( 4.399543625936867440E-17, 0.000000000000000000, 0.3592500000000000693 ) ) ;
#178 = AXIS2_PLACEMENT_3D ( 'NONE', #233, #154, #198 ) ;
#179 = ORIENTED_EDGE ( 'NONE', *, *, #152, .T. ) ;
#180 = APPROVAL_ROLE ( '' ) ;
#181 = DESIGN_CONTEXT ( 'detailed design', #96, 'design' ) ;
#182 = DIRECTION ( 'NONE',  ( 0.000000000000000000, -0.000000000000000000, 1.000000000000000000 ) ) ;
#183 = ORIENTED_EDGE ( 'NONE', *, *, #37, .T. ) ;
#184 = AXIS2_PLACEMENT_3D ( 'NONE', #85, #192, #146 ) ;
#185 =( CONVERSION_BASED_UNIT ( 'INCH', #27 ) LENGTH_UNIT ( ) NAMED_UNIT ( #229 ) );
#186 = CALENDAR_DATE ( 2025, 27, 8 ) ;
#187 = LOCAL_TIME ( 8, 10, 14.00000000000000000, #132 ) ;
#188 = CC_DESIGN_PERSON_AND_ORGANIZATION_ASSIGNMENT ( #86, #160, ( #117 ) ) ;
#189 = AXIS2_PLACEMENT_3D ( 'NONE', #113, #153, #130 ) ;
#190 = LINE ( 'NONE', #217, #105 ) ;
#191 = ORIENTED_EDGE ( 'NONE', *, *, #19, .T. ) ;
#192 = DIRECTION ( 'NONE',  ( 0.000000000000000000, 1.000000000000000000, 0.000000000000000000 ) ) ;
#193 = DIRECTION ( 'NONE',  ( 0.000000000000000000, -0.000000000000000000, 1.000000000000000000 ) ) ;
#194 = AXIS2_PLACEMENT_3D ( 'NONE', #169, #215, #167 ) ;
#195 = DIRECTION ( 'NONE',  ( -0.000000000000000000, -1.000000000000000000, -0.000000000000000000 ) ) ;
#196 = DIRECTION ( 'NONE',  ( -0.000000000000000000, -1.000000000000000000, -0.000000000000000000 ) ) ;
#197 = PRODUCT ( 'GSK-DIN5-T', 'GSK-DIN5-T', '', ( #204 ) ) ;
#198 = DIRECTION ( 'NONE',  ( 0.000000000000000000, 0.000000000000000000, 1.000000000000000000 ) ) ;
#199 = CYLINDRICAL_SURFACE ( 'NONE', #189, 0.3592500000000000693 ) ;
#200 = CARTESIAN_POINT ( 'NONE',  ( 1.690012582823347382E-17, 0.000000000000000000, 0.1380000000000000115 ) ) ;
#201 = PERSON_AND_ORGANIZATION ( #72, #8 ) ;
#202 = PERSON_AND_ORGANIZATION_ROLE ( 'design_supplier' ) ;
#203 = CARTESIAN_POINT ( 'NONE',  ( 0.000000000000000000, 0.07900000000000000078, 0.000000000000000000 ) ) ;
#204 = MECHANICAL_CONTEXT ( 'NONE', #119, 'mechanical' ) ;
#205 = VERTEX_POINT ( 'NONE', #71 ) ;
#206 = APPROVAL_DATE_TIME ( #236, #111 ) ;
#207 = CYLINDRICAL_SURFACE ( 'NONE', #24, 0.1380000000000000115 ) ;
#208 = VERTEX_POINT ( 'NONE', #222 ) ;
#209 = AXIS2_PLACEMENT_3D ( 'NONE', #89, #94, #193 ) ;
#210 = CYLINDRICAL_SURFACE ( 'NONE', #243, 0.1380000000000000115 ) ;
#211 = VERTEX_POINT ( 'NONE', #75 ) ;
#212 = MANIFOLD_SOLID_BREP ( 'Boss-Extrude1', #88 ) ;
#213 = VERTEX_POINT ( 'NONE', #59 ) ;
#214 = EDGE_CURVE ( 'NONE', #205, #15, #82, .T. ) ;
#215 = DIRECTION ( 'NONE',  ( -0.000000000000000000, -1.000000000000000000, -0.000000000000000000 ) ) ;
#216 = DIRECTION ( 'NONE',  ( 0.000000000000000000, 1.000000000000000000, 0.000000000000000000 ) ) ;
#217 = CARTESIAN_POINT ( 'NONE',  ( 0.000000000000000000, 0.07900000000000000078, -0.1380000000000000115 ) ) ;
#218 = PERSON_AND_ORGANIZATION ( #72, #8 ) ;
#219 = ORIENTED_EDGE ( 'NONE', *, *, #10, .T. ) ;
#220 = CARTESIAN_POINT ( 'NONE',  ( 0.000000000000000000, 0.07900000000000000078, -0.1380000000000000115 ) ) ;
#221 = LOCAL_TIME ( 8, 10, 14.00000000000000000, #63 ) ;
#222 = CARTESIAN_POINT ( 'NONE',  ( 0.000000000000000000, 0.000000000000000000, -0.3592500000000000693 ) ) ;
#223 = DIRECTION ( 'NONE',  ( 0.000000000000000000, 1.000000000000000000, 0.000000000000000000 ) ) ;
#224 = AXIS2_PLACEMENT_3D ( 'NONE', #227, #216, #67 ) ;
#225 = CARTESIAN_POINT ( 'NONE',  ( 1.690012582823347382E-17, 0.07900000000000000078, 0.1380000000000000115 ) ) ;
#226 = CYLINDRICAL_SURFACE ( 'NONE', #194, 0.3592500000000000693 ) ;
#227 = CARTESIAN_POINT ( 'NONE',  ( 0.000000000000000000, 0.000000000000000000, 0.000000000000000000 ) ) ;
#228 = ORIENTED_EDGE ( 'NONE', *, *, #26, .F. ) ;
#229 = DIMENSIONAL_EXPONENTS ( 1.000000000000000000, 0.000000000000000000, 0.000000000000000000, 0.000000000000000000, 0.000000000000000000, 0.000000000000000000, 0.000000000000000000 ) ;
#230 = CARTESIAN_POINT ( 'NONE',  ( 0.000000000000000000, 0.000000000000000000, 0.000000000000000000 ) ) ;
#231 = ORIENTED_EDGE ( 'NONE', *, *, #10, .F. ) ;
#232 = DIRECTION ( 'NONE',  ( 0.000000000000000000, 1.000000000000000000, 0.000000000000000000 ) ) ;
#233 = CARTESIAN_POINT ( 'NONE',  ( 0.000000000000000000, 0.07900000000000000078, 0.000000000000000000 ) ) ;
#234 = ORIENTED_EDGE ( 'NONE', *, *, #64, .F. ) ;
#235 = DIRECTION ( 'NONE',  ( 0.000000000000000000, 1.000000000000000000, 0.000000000000000000 ) ) ;
#236 = DATE_AND_TIME ( #186, #29 ) ;
#237 = DIRECTION ( 'NONE',  ( 0.000000000000000000, 0.000000000000000000, 1.000000000000000000 ) ) ;
#238 = EDGE_CURVE ( 'NONE', #213, #78, #170, .T. ) ;
#239 = DIRECTION ( 'NONE',  ( 0.000000000000000000, 0.000000000000000000, 1.000000000000000000 ) ) ;
#240 = PRODUCT_DEFINITION_SHAPE ( 'NONE', 'NONE',  #104 ) ;
#241 = APPROVAL_STATUS ( 'not_yet_approved' ) ;
#242 = SHAPE_DEFINITION_REPRESENTATION ( #240, #13 ) ;
#243 = AXIS2_PLACEMENT_3D ( 'NONE', #33, #32, #56 ) ;
#244 = FACE_OUTER_BOUND ( 'NONE', #155, .T. ) ;
#245 = APPROVAL_PERSON_ORGANIZATION ( #101, #84, #137 ) ;
#246 = CARTESIAN_POINT ( 'NONE',  ( 4.399543625936867440E-17, 0.07900000000000000078, 0.3592500000000000693 ) ) ;
#247 = ORIENTED_EDGE ( 'NONE', *, *, #238, .F. ) ;
#248 = ADVANCED_FACE ( 'NONE', ( #147 ), #207, .F. ) ;
#249 = AXIS2_PLACEMENT_3D ( 'NONE', #230, #175, #110 ) ;
#250 = CARTESIAN_POINT ( 'NONE',  ( 0.000000000000000000, 0.000000000000000000, 0.000000000000000000 ) ) ;
#251 = DIRECTION ( 'NONE',  ( -0.000000000000000000, -1.000000000000000000, -0.000000000000000000 ) ) ;
#252 = LINE ( 'NONE', #55, #87 ) ;
ENDSEC;
END-ISO-10303-21;
