ISO-10303-21;
HEADER;
FILE_DESCRIPTION (( 'STEP AP203' ),
    '1' );
FILE_NAME ('GSK-JIS22-K.STEP',
    '2025-08-27T13:19:30',
    ( '' ),
    ( '' ),
    'SwSTEP 2.0',
    'SolidWorks 2018',
    '' );
FILE_SCHEMA (( 'CONFIG_CONTROL_DESIGN' ));
ENDSEC;

DATA;
#1 = EDGE_CURVE ( 'NONE', #64, #23, #105, .T. ) ;
#2 = PERSON_AND_ORGANIZATION_ROLE ( 'creator' ) ;
#3 = FACE_BOUND ( 'NONE', #228, .T. ) ;
#4 = APPROVAL ( #120, 'UNSPECIFIED' ) ;
#5 = MECHANICAL_CONTEXT ( 'NONE', #58, 'mechanical' ) ;
#6 = LOCAL_TIME ( 9, 19, 30.00000000000000000, #199 ) ;
#7 = APPROVAL_STATUS ( 'not_yet_approved' ) ;
#8 = VERTEX_POINT ( 'NONE', #148 ) ;
#9 = EDGE_CURVE ( 'NONE', #119, #102, #238, .T. ) ;
#10 = COORDINATED_UNIVERSAL_TIME_OFFSET ( 5, 0, .BEHIND. ) ;
#11 = CIRCLE ( 'NONE', #73, 0.2424999999999999378 ) ;
#12 = PERSON_AND_ORGANIZATION ( #176, #26 ) ;
#13 = CC_DESIGN_PERSON_AND_ORGANIZATION_ASSIGNMENT ( #247, #55, ( #209 ) ) ;
#14 = EDGE_CURVE ( 'NONE', #179, #23, #11, .T. ) ;
#15 = ORIENTED_EDGE ( 'NONE', *, *, #61, .T. ) ;
#16 = LENGTH_MEASURE_WITH_UNIT ( LENGTH_MEASURE( 0.02539999999999999897 ), #249 );
#17 = CC_DESIGN_DATE_AND_TIME_ASSIGNMENT ( #211, #122, ( #28 ) ) ;
#18 = CARTESIAN_POINT ( 'NONE',  ( 0.000000000000000000, 0.05899999999999999689, 0.000000000000000000 ) ) ;
#19 = CARTESIAN_POINT ( 'NONE',  ( 0.000000000000000000, 0.000000000000000000, 0.000000000000000000 ) ) ;
#20 =( CONVERSION_BASED_UNIT ( 'INCH', #16 ) LENGTH_UNIT ( ) NAMED_UNIT ( #87 ) );
#21 = DIRECTION ( 'NONE',  ( 0.000000000000000000, 1.000000000000000000, 0.000000000000000000 ) ) ;
#22 = PRODUCT ( 'GSK-JIS22-K', 'GSK-JIS22-K', '', ( #5 ) ) ;
#23 = VERTEX_POINT ( 'NONE', #150 ) ;
#24 = EDGE_CURVE ( 'NONE', #119, #72, #125, .T. ) ;
#25 = AXIS2_PLACEMENT_3D ( 'NONE', #172, #225, #113 ) ;
#26 = ORGANIZATION ( 'UNSPECIFIED', 'UNSPECIFIED', '' ) ;
#27 = ORIENTED_EDGE ( 'NONE', *, *, #166, .T. ) ;
#28 = PRODUCT_DEFINITION ( 'UNKNOWN', '', #209, #149 ) ;
#29 = ORIENTED_EDGE ( 'NONE', *, *, #166, .F. ) ;
#30 = CARTESIAN_POINT ( 'NONE',  ( 0.000000000000000000, 0.05899999999999999689, 0.000000000000000000 ) ) ;
#31 = DIRECTION ( 'NONE',  ( -0.000000000000000000, -1.000000000000000000, -0.000000000000000000 ) ) ;
#32 = SHAPE_DEFINITION_REPRESENTATION ( #191, #79 ) ;
#33 = ADVANCED_FACE ( 'NONE', ( #186, #3 ), #127, .T. ) ;
#34 = CARTESIAN_POINT ( 'NONE',  ( 2.969768487932330498E-17, 0.000000000000000000, 0.2424999999999999378 ) ) ;
#35 = EDGE_CURVE ( 'NONE', #102, #8, #100, .T. ) ;
#36 = CARTESIAN_POINT ( 'NONE',  ( 4.580179028811098865E-17, 0.05899999999999999689, 0.3739999999999998881 ) ) ;
#37 = CARTESIAN_POINT ( 'NONE',  ( 0.000000000000000000, 0.05899999999999999689, 0.000000000000000000 ) ) ;
#38 = ORIENTED_EDGE ( 'NONE', *, *, #14, .T. ) ;
#39 = PERSON_AND_ORGANIZATION_ROLE ( 'classification_officer' ) ;
#40 = AXIS2_PLACEMENT_3D ( 'NONE', #30, #170, #145 ) ;
#41 = AXIS2_PLACEMENT_3D ( 'NONE', #54, #190, #75 ) ;
#42 = VECTOR ( 'NONE', #31, 39.37007874015748143 ) ;
#43 = COORDINATED_UNIVERSAL_TIME_OFFSET ( 5, 0, .BEHIND. ) ;
#44 = APPROVAL ( #216, 'UNSPECIFIED' ) ;
#45 = AXIS2_PLACEMENT_3D ( 'NONE', #128, #206, #223 ) ;
#46 = ORIENTED_EDGE ( 'NONE', *, *, #24, .F. ) ;
#47 = FACE_OUTER_BOUND ( 'NONE', #49, .T. ) ;
#48 = APPROVAL_PERSON_ORGANIZATION ( #101, #44, #98 ) ;
#49 = EDGE_LOOP ( 'NONE', ( #155, #165 ) ) ;
#50 = CARTESIAN_POINT ( 'NONE',  ( 0.000000000000000000, 0.05899999999999999689, -0.2424999999999999378 ) ) ;
#51 = VECTOR ( 'NONE', #204, 39.37007874015748143 ) ;
#52 = CARTESIAN_POINT ( 'NONE',  ( 0.000000000000000000, 0.05899999999999999689, 0.000000000000000000 ) ) ;
#53 = DIRECTION ( 'NONE',  ( 0.000000000000000000, 0.000000000000000000, 1.000000000000000000 ) ) ;
#54 = CARTESIAN_POINT ( 'NONE',  ( 0.000000000000000000, 0.05899999999999999689, 0.000000000000000000 ) ) ;
#55 = PERSON_AND_ORGANIZATION_ROLE ( 'design_supplier' ) ;
#56 = DIRECTION ( 'NONE',  ( 1.000000000000000000, 0.000000000000000000, 0.000000000000000000 ) ) ;
#57 = FACE_OUTER_BOUND ( 'NONE', #237, .T. ) ;
#58 = APPLICATION_CONTEXT ( 'configuration controlled 3d designs of mechanical parts and assemblies' ) ;
#59 = LOCAL_TIME ( 9, 19, 30.00000000000000000, #239 ) ;
#60 = DIRECTION ( 'NONE',  ( 0.000000000000000000, 0.000000000000000000, 1.000000000000000000 ) ) ;
#61 = EDGE_CURVE ( 'NONE', #8, #102, #195, .T. ) ;
#62 = EDGE_LOOP ( 'NONE', ( #222, #27, #15, #217 ) ) ;
#63 = EDGE_CURVE ( 'NONE', #72, #119, #200, .T. ) ;
#64 = VERTEX_POINT ( 'NONE', #50 ) ;
#65 = CALENDAR_DATE ( 2025, 27, 8 ) ;
#66 = EDGE_LOOP ( 'NONE', ( #242, #84 ) ) ;
#67 = DATE_AND_TIME ( #132, #162 ) ;
#68 = AXIS2_PLACEMENT_3D ( 'NONE', #230, #188, #95 ) ;
#69 = APPROVAL_PERSON_ORGANIZATION ( #252, #160, #215 ) ;
#70 = PLANE ( 'NONE',  #80 ) ;
#71 = DIRECTION ( 'NONE',  ( 0.000000000000000000, 1.000000000000000000, 0.000000000000000000 ) ) ;
#72 = VERTEX_POINT ( 'NONE', #108 ) ;
#73 = AXIS2_PLACEMENT_3D ( 'NONE', #88, #143, #203 ) ;
#74 = CALENDAR_DATE ( 2025, 27, 8 ) ;
#75 = DIRECTION ( 'NONE',  ( 0.000000000000000000, 0.000000000000000000, -1.000000000000000000 ) ) ;
#76 = APPLICATION_CONTEXT ( 'configuration controlled 3d designs of mechanical parts and assemblies' ) ;
#77 = AXIS2_PLACEMENT_3D ( 'NONE', #227, #177, #93 ) ;
#78 = APPLICATION_PROTOCOL_DEFINITION ( 'international standard', 'config_control_design', 1994, #58 ) ;
#79 = ADVANCED_BREP_SHAPE_REPRESENTATION ( 'GSK-JIS22-K', ( #106, #144 ), #104 ) ;
#80 = AXIS2_PLACEMENT_3D ( 'NONE', #19, #71, #91 ) ;
#81 = CIRCLE ( 'NONE', #121, 0.2424999999999999378 ) ;
#82 = VERTEX_POINT ( 'NONE', #115 ) ;
#83 = AXIS2_PLACEMENT_3D ( 'NONE', #175, #251, #152 ) ;
#84 = ORIENTED_EDGE ( 'NONE', *, *, #63, .T. ) ;
#85 = VECTOR ( 'NONE', #96, 39.37007874015748143 ) ;
#86 = EDGE_LOOP ( 'NONE', ( #234, #38 ) ) ;
#87 = DIMENSIONAL_EXPONENTS ( 1.000000000000000000, 0.000000000000000000, 0.000000000000000000, 0.000000000000000000, 0.000000000000000000, 0.000000000000000000, 0.000000000000000000 ) ;
#88 = CARTESIAN_POINT ( 'NONE',  ( 0.000000000000000000, 0.000000000000000000, 0.000000000000000000 ) ) ;
#89 = EDGE_CURVE ( 'NONE', #82, #179, #244, .T. ) ;
#90 = ORIENTED_EDGE ( 'NONE', *, *, #202, .T. ) ;
#91 = DIRECTION ( 'NONE',  ( 0.000000000000000000, -0.000000000000000000, 1.000000000000000000 ) ) ;
#92 = CIRCLE ( 'NONE', #110, 0.2424999999999999378 ) ;
#93 = DIRECTION ( 'NONE',  ( 0.000000000000000000, 0.000000000000000000, 1.000000000000000000 ) ) ;
#94 = AXIS2_PLACEMENT_3D ( 'NONE', #37, #117, #112 ) ;
#95 = DIRECTION ( 'NONE',  ( 0.000000000000000000, 0.000000000000000000, 1.000000000000000000 ) ) ;
#96 = DIRECTION ( 'NONE',  ( -0.000000000000000000, -1.000000000000000000, -0.000000000000000000 ) ) ;
#97 = ORIENTED_EDGE ( 'NONE', *, *, #35, .T. ) ;
#98 = APPROVAL_ROLE ( '' ) ;
#99 = APPROVAL_ROLE ( '' ) ;
#100 = CIRCLE ( 'NONE', #68, 0.3739999999999998881 ) ;
#101 = PERSON_AND_ORGANIZATION ( #176, #26 ) ;
#102 = VERTEX_POINT ( 'NONE', #208 ) ;
#103 = PERSON_AND_ORGANIZATION ( #176, #26 ) ;
#104 =( GEOMETRIC_REPRESENTATION_CONTEXT ( 3 ) GLOBAL_UNCERTAINTY_ASSIGNED_CONTEXT ( ( #214 ) ) GLOBAL_UNIT_ASSIGNED_CONTEXT ( ( #20, #178, #159 ) ) REPRESENTATION_CONTEXT ( 'NONE', 'WORKASPACE' ) );
#105 = LINE ( 'NONE', #169, #158 ) ;
#106 = MANIFOLD_SOLID_BREP ( 'Boss-Extrude1', #146 ) ;
#107 = AXIS2_PLACEMENT_3D ( 'NONE', #246, #210, #224 ) ;
#108 = CARTESIAN_POINT ( 'NONE',  ( 4.580179028811098865E-17, 0.05899999999999999689, 0.3739999999999998881 ) ) ;
#109 = ORIENTED_EDGE ( 'NONE', *, *, #231, .F. ) ;
#110 = AXIS2_PLACEMENT_3D ( 'NONE', #18, #154, #156 ) ;
#111 = FACE_BOUND ( 'NONE', #86, .T. ) ;
#112 = DIRECTION ( 'NONE',  ( 0.000000000000000000, 0.000000000000000000, 1.000000000000000000 ) ) ;
#113 = DIRECTION ( 'NONE',  ( 0.000000000000000000, 0.000000000000000000, -1.000000000000000000 ) ) ;
#114 = DIRECTION ( 'NONE',  ( -0.000000000000000000, -1.000000000000000000, -0.000000000000000000 ) ) ;
#115 = CARTESIAN_POINT ( 'NONE',  ( 2.969768487932330498E-17, 0.05899999999999999689, 0.2424999999999999378 ) ) ;
#116 = ORIENTED_EDGE ( 'NONE', *, *, #241, .F. ) ;
#117 = DIRECTION ( 'NONE',  ( 0.000000000000000000, 1.000000000000000000, 0.000000000000000000 ) ) ;
#118 = APPLICATION_PROTOCOL_DEFINITION ( 'international standard', 'config_control_design', 1994, #76 ) ;
#119 = VERTEX_POINT ( 'NONE', #248 ) ;
#120 = APPROVAL_STATUS ( 'not_yet_approved' ) ;
#121 = AXIS2_PLACEMENT_3D ( 'NONE', #243, #21, #53 ) ;
#122 = DATE_TIME_ROLE ( 'creation_date' ) ;
#123 = CC_DESIGN_PERSON_AND_ORGANIZATION_ASSIGNMENT ( #153, #196, ( #28 ) ) ;
#124 = ORIENTED_EDGE ( 'NONE', *, *, #89, .F. ) ;
#125 = CIRCLE ( 'NONE', #45, 0.3739999999999998881 ) ;
#126 = LOCAL_TIME ( 9, 19, 30.00000000000000000, #141 ) ;
#127 = PLANE ( 'NONE',  #40 ) ;
#128 = CARTESIAN_POINT ( 'NONE',  ( 0.000000000000000000, 0.05899999999999999689, 0.000000000000000000 ) ) ;
#129 = ADVANCED_FACE ( 'NONE', ( #151 ), #163, .F. ) ;
#130 = ADVANCED_FACE ( 'NONE', ( #57 ), #140, .T. ) ;
#131 = CIRCLE ( 'NONE', #94, 0.2424999999999999378 ) ;
#132 = CALENDAR_DATE ( 2025, 27, 8 ) ;
#133 = CARTESIAN_POINT ( 'NONE',  ( 2.969768487932330498E-17, 0.05899999999999999689, 0.2424999999999999378 ) ) ;
#134 = SECURITY_CLASSIFICATION_LEVEL ( 'unclassified' ) ;
#135 = EDGE_LOOP ( 'NONE', ( #161, #187, #116, #137 ) ) ;
#136 = FACE_OUTER_BOUND ( 'NONE', #62, .T. ) ;
#137 = ORIENTED_EDGE ( 'NONE', *, *, #1, .F. ) ;
#138 = CALENDAR_DATE ( 2025, 27, 8 ) ;
#139 = ORIENTED_EDGE ( 'NONE', *, *, #9, .T. ) ;
#140 = CYLINDRICAL_SURFACE ( 'NONE', #41, 0.3739999999999998881 ) ;
#141 = COORDINATED_UNIVERSAL_TIME_OFFSET ( 5, 0, .BEHIND. ) ;
#142 = ADVANCED_FACE ( 'NONE', ( #47, #111 ), #70, .F. ) ;
#143 = DIRECTION ( 'NONE',  ( 0.000000000000000000, 1.000000000000000000, 0.000000000000000000 ) ) ;
#144 = AXIS2_PLACEMENT_3D ( 'NONE', #192, #60, #56 ) ;
#145 = DIRECTION ( 'NONE',  ( 0.000000000000000000, -0.000000000000000000, 1.000000000000000000 ) ) ;
#146 = CLOSED_SHELL ( 'NONE', ( #129, #173, #33, #142, #130, #245 ) ) ;
#147 = APPROVAL_DATE_TIME ( #67, #44 ) ;
#148 = CARTESIAN_POINT ( 'NONE',  ( 4.580179028811098865E-17, 0.000000000000000000, 0.3739999999999998881 ) ) ;
#149 = DESIGN_CONTEXT ( 'detailed design', #76, 'design' ) ;
#150 = CARTESIAN_POINT ( 'NONE',  ( 0.000000000000000000, 0.000000000000000000, -0.2424999999999999378 ) ) ;
#151 = FACE_OUTER_BOUND ( 'NONE', #135, .T. ) ;
#152 = DIRECTION ( 'NONE',  ( 0.000000000000000000, 0.000000000000000000, 1.000000000000000000 ) ) ;
#153 = PERSON_AND_ORGANIZATION ( #176, #26 ) ;
#154 = DIRECTION ( 'NONE',  ( 0.000000000000000000, 1.000000000000000000, 0.000000000000000000 ) ) ;
#155 = ORIENTED_EDGE ( 'NONE', *, *, #35, .F. ) ;
#156 = DIRECTION ( 'NONE',  ( 0.000000000000000000, 0.000000000000000000, 1.000000000000000000 ) ) ;
#157 = CC_DESIGN_SECURITY_CLASSIFICATION ( #250, ( #209 ) ) ;
#158 = VECTOR ( 'NONE', #168, 39.37007874015748143 ) ;
#159 =( NAMED_UNIT ( * ) SI_UNIT ( $, .STERADIAN. ) SOLID_ANGLE_UNIT ( ) );
#160 = APPROVAL ( #7, 'UNSPECIFIED' ) ;
#161 = ORIENTED_EDGE ( 'NONE', *, *, #231, .T. ) ;
#162 = LOCAL_TIME ( 9, 19, 30.00000000000000000, #10 ) ;
#163 = CYLINDRICAL_SURFACE ( 'NONE', #25, 0.2424999999999999378 ) ;
#164 = APPROVAL_DATE_TIME ( #235, #160 ) ;
#165 = ORIENTED_EDGE ( 'NONE', *, *, #61, .F. ) ;
#166 = EDGE_CURVE ( 'NONE', #72, #8, #219, .T. ) ;
#167 = PERSON_AND_ORGANIZATION ( #176, #26 ) ;
#168 = DIRECTION ( 'NONE',  ( -0.000000000000000000, -1.000000000000000000, -0.000000000000000000 ) ) ;
#169 = CARTESIAN_POINT ( 'NONE',  ( 0.000000000000000000, 0.05899999999999999689, -0.2424999999999999378 ) ) ;
#170 = DIRECTION ( 'NONE',  ( 0.000000000000000000, 1.000000000000000000, 0.000000000000000000 ) ) ;
#171 = ORIENTED_EDGE ( 'NONE', *, *, #1, .T. ) ;
#172 = CARTESIAN_POINT ( 'NONE',  ( 0.000000000000000000, 0.05899999999999999689, 0.000000000000000000 ) ) ;
#173 = ADVANCED_FACE ( 'NONE', ( #136 ), #182, .T. ) ;
#174 = CC_DESIGN_APPROVAL ( #4, ( #250 ) ) ;
#175 = CARTESIAN_POINT ( 'NONE',  ( 0.000000000000000000, 0.05899999999999999689, 0.000000000000000000 ) ) ;
#176 = PERSON ( 'UNSPECIFIED', 'UNSPECIFIED', 'UNSPECIFIED', ('UNSPECIFIED'), ('UNSPECIFIED'), ('UNSPECIFIED') ) ;
#177 = DIRECTION ( 'NONE',  ( 0.000000000000000000, 1.000000000000000000, 0.000000000000000000 ) ) ;
#178 =( NAMED_UNIT ( * ) PLANE_ANGLE_UNIT ( ) SI_UNIT ( $, .RADIAN. ) );
#179 = VERTEX_POINT ( 'NONE', #34 ) ;
#180 = APPROVAL_PERSON_ORGANIZATION ( #12, #4, #99 ) ;
#181 = EDGE_LOOP ( 'NONE', ( #124, #90, #171, #193 ) ) ;
#182 = CYLINDRICAL_SURFACE ( 'NONE', #107, 0.3739999999999998881 ) ;
#183 = CALENDAR_DATE ( 2025, 27, 8 ) ;
#184 = CARTESIAN_POINT ( 'NONE',  ( 0.000000000000000000, 0.05899999999999999689, -0.3739999999999998881 ) ) ;
#185 = APPROVAL_DATE_TIME ( #207, #4 ) ;
#186 = FACE_OUTER_BOUND ( 'NONE', #66, .T. ) ;
#187 = ORIENTED_EDGE ( 'NONE', *, *, #89, .T. ) ;
#188 = DIRECTION ( 'NONE',  ( 0.000000000000000000, 1.000000000000000000, 0.000000000000000000 ) ) ;
#189 = DIRECTION ( 'NONE',  ( 0.000000000000000000, 0.000000000000000000, -1.000000000000000000 ) ) ;
#190 = DIRECTION ( 'NONE',  ( -0.000000000000000000, -1.000000000000000000, -0.000000000000000000 ) ) ;
#191 = PRODUCT_DEFINITION_SHAPE ( 'NONE', 'NONE',  #28 ) ;
#192 = CARTESIAN_POINT ( 'NONE',  ( 0.000000000000000000, 0.000000000000000000, 0.000000000000000000 ) ) ;
#193 = ORIENTED_EDGE ( 'NONE', *, *, #14, .F. ) ;
#194 = AXIS2_PLACEMENT_3D ( 'NONE', #52, #114, #189 ) ;
#195 = CIRCLE ( 'NONE', #77, 0.3739999999999998881 ) ;
#196 = PERSON_AND_ORGANIZATION_ROLE ( 'creator' ) ;
#197 = PERSON_AND_ORGANIZATION ( #176, #26 ) ;
#198 = CC_DESIGN_APPROVAL ( #44, ( #209 ) ) ;
#199 = COORDINATED_UNIVERSAL_TIME_OFFSET ( 5, 0, .BEHIND. ) ;
#200 = CIRCLE ( 'NONE', #83, 0.3739999999999998881 ) ;
#201 = PRODUCT_RELATED_PRODUCT_CATEGORY ( 'detail', '', ( #22 ) ) ;
#202 = EDGE_CURVE ( 'NONE', #82, #64, #92, .T. ) ;
#203 = DIRECTION ( 'NONE',  ( 0.000000000000000000, 0.000000000000000000, 1.000000000000000000 ) ) ;
#204 = DIRECTION ( 'NONE',  ( -0.000000000000000000, -1.000000000000000000, -0.000000000000000000 ) ) ;
#205 = CC_DESIGN_PERSON_AND_ORGANIZATION_ASSIGNMENT ( #197, #2, ( #209 ) ) ;
#206 = DIRECTION ( 'NONE',  ( 0.000000000000000000, 1.000000000000000000, 0.000000000000000000 ) ) ;
#207 = DATE_AND_TIME ( #74, #126 ) ;
#208 = CARTESIAN_POINT ( 'NONE',  ( 0.000000000000000000, 0.000000000000000000, -0.3739999999999998881 ) ) ;
#209 = PRODUCT_DEFINITION_FORMATION_WITH_SPECIFIED_SOURCE ( 'ANY', '', #22, .NOT_KNOWN. ) ;
#210 = DIRECTION ( 'NONE',  ( -0.000000000000000000, -1.000000000000000000, -0.000000000000000000 ) ) ;
#211 = DATE_AND_TIME ( #65, #6 ) ;
#212 = PERSON_AND_ORGANIZATION_ROLE ( 'design_owner' ) ;
#213 = FACE_OUTER_BOUND ( 'NONE', #181, .T. ) ;
#214 = UNCERTAINTY_MEASURE_WITH_UNIT (LENGTH_MEASURE( 1.000000000000000082E-05 ), #20, 'distance_accuracy_value', 'NONE');
#215 = APPROVAL_ROLE ( '' ) ;
#216 = APPROVAL_STATUS ( 'not_yet_approved' ) ;
#217 = ORIENTED_EDGE ( 'NONE', *, *, #9, .F. ) ;
#218 = DATE_AND_TIME ( #183, #59 ) ;
#219 = LINE ( 'NONE', #36, #85 ) ;
#220 = ORIENTED_EDGE ( 'NONE', *, *, #202, .F. ) ;
#221 = CC_DESIGN_APPROVAL ( #160, ( #28 ) ) ;
#222 = ORIENTED_EDGE ( 'NONE', *, *, #63, .F. ) ;
#223 = DIRECTION ( 'NONE',  ( 0.000000000000000000, 0.000000000000000000, 1.000000000000000000 ) ) ;
#224 = DIRECTION ( 'NONE',  ( 0.000000000000000000, 0.000000000000000000, -1.000000000000000000 ) ) ;
#225 = DIRECTION ( 'NONE',  ( -0.000000000000000000, -1.000000000000000000, -0.000000000000000000 ) ) ;
#226 = CYLINDRICAL_SURFACE ( 'NONE', #194, 0.2424999999999999378 ) ;
#227 = CARTESIAN_POINT ( 'NONE',  ( 0.000000000000000000, 0.000000000000000000, 0.000000000000000000 ) ) ;
#228 = EDGE_LOOP ( 'NONE', ( #109, #220 ) ) ;
#229 = LOCAL_TIME ( 9, 19, 30.00000000000000000, #43 ) ;
#230 = CARTESIAN_POINT ( 'NONE',  ( 0.000000000000000000, 0.000000000000000000, 0.000000000000000000 ) ) ;
#231 = EDGE_CURVE ( 'NONE', #64, #82, #131, .T. ) ;
#232 = CC_DESIGN_PERSON_AND_ORGANIZATION_ASSIGNMENT ( #167, #39, ( #250 ) ) ;
#233 = DATE_TIME_ROLE ( 'classification_date' ) ;
#234 = ORIENTED_EDGE ( 'NONE', *, *, #241, .T. ) ;
#235 = DATE_AND_TIME ( #138, #229 ) ;
#236 = CC_DESIGN_PERSON_AND_ORGANIZATION_ASSIGNMENT ( #103, #212, ( #22 ) ) ;
#237 = EDGE_LOOP ( 'NONE', ( #29, #46, #139, #97 ) ) ;
#238 = LINE ( 'NONE', #184, #51 ) ;
#239 = COORDINATED_UNIVERSAL_TIME_OFFSET ( 5, 0, .BEHIND. ) ;
#240 = CC_DESIGN_DATE_AND_TIME_ASSIGNMENT ( #218, #233, ( #250 ) ) ;
#241 = EDGE_CURVE ( 'NONE', #23, #179, #81, .T. ) ;
#242 = ORIENTED_EDGE ( 'NONE', *, *, #24, .T. ) ;
#243 = CARTESIAN_POINT ( 'NONE',  ( 0.000000000000000000, 0.000000000000000000, 0.000000000000000000 ) ) ;
#244 = LINE ( 'NONE', #133, #42 ) ;
#245 = ADVANCED_FACE ( 'NONE', ( #213 ), #226, .F. ) ;
#246 = CARTESIAN_POINT ( 'NONE',  ( 0.000000000000000000, 0.05899999999999999689, 0.000000000000000000 ) ) ;
#247 = PERSON_AND_ORGANIZATION ( #176, #26 ) ;
#248 = CARTESIAN_POINT ( 'NONE',  ( 0.000000000000000000, 0.05899999999999999689, -0.3739999999999998881 ) ) ;
#249 =( LENGTH_UNIT ( ) NAMED_UNIT ( * ) SI_UNIT ( $, .METRE. ) );
#250 = SECURITY_CLASSIFICATION ( '', '', #134 ) ;
#251 = DIRECTION ( 'NONE',  ( 0.000000000000000000, 1.000000000000000000, 0.000000000000000000 ) ) ;
#252 = PERSON_AND_ORGANIZATION ( #176, #26 ) ;
ENDSEC;
END-ISO-10303-21;
