ISO-10303-21;
HEADER;
FILE_DESCRIPTION (( 'STEP AP203' ),
    '1' );
FILE_NAME ('GSK-JIS22-NI.STEP',
    '2025-08-27T14:16:01',
    ( '' ),
    ( '' ),
    'SwSTEP 2.0',
    'SolidWorks 2018',
    '' );
FILE_SCHEMA (( 'CONFIG_CONTROL_DESIGN' ));
ENDSEC;

DATA;
#1 = EDGE_CURVE ( 'NONE', #92, #183, #20, .T. ) ;
#2 = CYLINDRICAL_SURFACE ( 'NONE', #158, 0.3740000000000001101 ) ;
#3 = VERTEX_POINT ( 'NONE', #120 ) ;
#4 = DIRECTION ( 'NONE',  ( 0.000000000000000000, 0.000000000000000000, -1.000000000000000000 ) ) ;
#5 = PRODUCT_DEFINITION_SHAPE ( 'NONE', 'NONE',  #115 ) ;
#6 = CARTESIAN_POINT ( 'NONE',  ( 0.000000000000000000, -0.02949999999999999845, -0.2425000000000000211 ) ) ;
#7 = ORIENTED_EDGE ( 'NONE', *, *, #78, .T. ) ;
#8 = DIRECTION ( 'NONE',  ( 0.000000000000000000, 1.000000000000000000, 0.000000000000000000 ) ) ;
#9 = CARTESIAN_POINT ( 'NONE',  ( 0.000000000000000000, 0.000000000000000000, 0.000000000000000000 ) ) ;
#10 = DIRECTION ( 'NONE',  ( 0.000000000000000000, 1.000000000000000000, 0.000000000000000000 ) ) ;
#11 = APPLICATION_CONTEXT ( 'configuration controlled 3d designs of mechanical parts and assemblies' ) ;
#12 = PERSON_AND_ORGANIZATION_ROLE ( 'classification_officer' ) ;
#13 = EDGE_CURVE ( 'NONE', #199, #3, #206, .T. ) ;
#14 = PERSON_AND_ORGANIZATION_ROLE ( 'creator' ) ;
#15 = FACE_OUTER_BOUND ( 'NONE', #88, .T. ) ;
#16 = CLOSED_SHELL ( 'NONE', ( #126, #132, #67, #153, #207, #37 ) ) ;
#17 =( NAMED_UNIT ( * ) SI_UNIT ( $, .STERADIAN. ) SOLID_ANGLE_UNIT ( ) );
#18 = UNCERTAINTY_MEASURE_WITH_UNIT (LENGTH_MEASURE( 1.000000000000000082E-05 ), #38, 'distance_accuracy_value', 'NONE');
#19 = CC_DESIGN_APPROVAL ( #73, ( #115 ) ) ;
#20 = CIRCLE ( 'NONE', #121, 0.3740000000000001101 ) ;
#21 = ORIENTED_EDGE ( 'NONE', *, *, #13, .T. ) ;
#22 = EDGE_CURVE ( 'NONE', #61, #92, #151, .T. ) ;
#23 = ORGANIZATION ( 'UNSPECIFIED', 'UNSPECIFIED', '' ) ;
#24 = CARTESIAN_POINT ( 'NONE',  ( 4.580179028811100714E-17, 0.02949999999999999845, 0.3740000000000001101 ) ) ;
#25 = CYLINDRICAL_SURFACE ( 'NONE', #118, 0.3740000000000001101 ) ;
#26 = EDGE_CURVE ( 'NONE', #62, #139, #134, .T. ) ;
#27 = EDGE_LOOP ( 'NONE', ( #45, #52, #135, #146 ) ) ;
#28 = DIRECTION ( 'NONE',  ( 0.000000000000000000, 0.000000000000000000, 1.000000000000000000 ) ) ;
#29 = CARTESIAN_POINT ( 'NONE',  ( 0.000000000000000000, 0.02949999999999999845, -0.3740000000000001101 ) ) ;
#30 = DIRECTION ( 'NONE',  ( 0.000000000000000000, -0.000000000000000000, 1.000000000000000000 ) ) ;
#31 = EDGE_LOOP ( 'NONE', ( #142, #75, #244, #239 ) ) ;
#32 = PRODUCT ( 'GSK-JIS22-NI', 'GSK-JIS22-NI', '', ( #251 ) ) ;
#33 = PRODUCT_DEFINITION_FORMATION_WITH_SPECIFIED_SOURCE ( 'ANY', '', #32, .NOT_KNOWN. ) ;
#34 = CALENDAR_DATE ( 2025, 27, 8 ) ;
#35 = CIRCLE ( 'NONE', #141, 0.3740000000000001101 ) ;
#36 = APPLICATION_PROTOCOL_DEFINITION ( 'international standard', 'config_control_design', 1994, #130 ) ;
#37 = ADVANCED_FACE ( 'NONE', ( #162 ), #44, .F. ) ;
#38 =( CONVERSION_BASED_UNIT ( 'INCH', #55 ) LENGTH_UNIT ( ) NAMED_UNIT ( #148 ) );
#39 =( GEOMETRIC_REPRESENTATION_CONTEXT ( 3 ) GLOBAL_UNCERTAINTY_ASSIGNED_CONTEXT ( ( #18 ) ) GLOBAL_UNIT_ASSIGNED_CONTEXT ( ( #38, #111, #17 ) ) REPRESENTATION_CONTEXT ( 'NONE', 'WORKASPACE' ) );
#40 = COORDINATED_UNIVERSAL_TIME_OFFSET ( 5, 0, .BEHIND. ) ;
#41 = ORIENTED_EDGE ( 'NONE', *, *, #212, .T. ) ;
#42 = AXIS2_PLACEMENT_3D ( 'NONE', #217, #236, #4 ) ;
#43 = EDGE_LOOP ( 'NONE', ( #41, #56 ) ) ;
#44 = CYLINDRICAL_SURFACE ( 'NONE', #42, 0.2425000000000000211 ) ;
#45 = ORIENTED_EDGE ( 'NONE', *, *, #22, .F. ) ;
#46 = DIRECTION ( 'NONE',  ( 0.000000000000000000, 1.000000000000000000, 0.000000000000000000 ) ) ;
#47 = APPROVAL_PERSON_ORGANIZATION ( #190, #70, #91 ) ;
#48 = ORIENTED_EDGE ( 'NONE', *, *, #127, .T. ) ;
#49 = CARTESIAN_POINT ( 'NONE',  ( 0.000000000000000000, 0.02949999999999999845, 0.000000000000000000 ) ) ;
#50 = CARTESIAN_POINT ( 'NONE',  ( 0.000000000000000000, 0.02949999999999999845, 0.000000000000000000 ) ) ;
#51 = FACE_OUTER_BOUND ( 'NONE', #31, .T. ) ;
#52 = ORIENTED_EDGE ( 'NONE', *, *, #212, .F. ) ;
#53 = PERSON_AND_ORGANIZATION_ROLE ( 'creator' ) ;
#54 = AXIS2_PLACEMENT_3D ( 'NONE', #202, #8, #89 ) ;
#55 = LENGTH_MEASURE_WITH_UNIT ( LENGTH_MEASURE( 0.02539999999999999897 ), #173 );
#56 = ORIENTED_EDGE ( 'NONE', *, *, #60, .T. ) ;
#57 = APPROVAL_STATUS ( 'not_yet_approved' ) ;
#58 = AXIS2_PLACEMENT_3D ( 'NONE', #218, #181, #219 ) ;
#59 = DATE_AND_TIME ( #34, #108 ) ;
#60 = EDGE_CURVE ( 'NONE', #61, #114, #211, .T. ) ;
#61 = VERTEX_POINT ( 'NONE', #64 ) ;
#62 = VERTEX_POINT ( 'NONE', #160 ) ;
#63 = PERSON_AND_ORGANIZATION ( #131, #23 ) ;
#64 = CARTESIAN_POINT ( 'NONE',  ( 4.580179028811100714E-17, 0.02949999999999999845, 0.3740000000000001101 ) ) ;
#65 = DIRECTION ( 'NONE',  ( -0.000000000000000000, -1.000000000000000000, -0.000000000000000000 ) ) ;
#66 = DIRECTION ( 'NONE',  ( 0.000000000000000000, 0.000000000000000000, 1.000000000000000000 ) ) ;
#67 = ADVANCED_FACE ( 'NONE', ( #99, #117 ), #72, .T. ) ;
#68 = DIRECTION ( 'NONE',  ( -0.000000000000000000, -1.000000000000000000, -0.000000000000000000 ) ) ;
#69 = LOCAL_TIME ( 10, 16, 1.000000000000000000, #40 ) ;
#70 = APPROVAL ( #57, 'UNSPECIFIED' ) ;
#71 = DIRECTION ( 'NONE',  ( 0.000000000000000000, 0.000000000000000000, 1.000000000000000000 ) ) ;
#72 = PLANE ( 'NONE',  #81 ) ;
#73 = APPROVAL ( #133, 'UNSPECIFIED' ) ;
#74 = PERSON_AND_ORGANIZATION_ROLE ( 'design_supplier' ) ;
#75 = ORIENTED_EDGE ( 'NONE', *, *, #22, .T. ) ;
#76 = COORDINATED_UNIVERSAL_TIME_OFFSET ( 5, 0, .BEHIND. ) ;
#77 = FACE_BOUND ( 'NONE', #232, .T. ) ;
#78 = EDGE_CURVE ( 'NONE', #139, #62, #196, .T. ) ;
#79 = LOCAL_TIME ( 10, 16, 1.000000000000000000, #249 ) ;
#80 = EDGE_LOOP ( 'NONE', ( #7, #152, #171, #208 ) ) ;
#81 = AXIS2_PLACEMENT_3D ( 'NONE', #87, #247, #149 ) ;
#82 = CARTESIAN_POINT ( 'NONE',  ( 0.000000000000000000, 0.02949999999999999845, 0.000000000000000000 ) ) ;
#83 = CC_DESIGN_APPROVAL ( #70, ( #33 ) ) ;
#84 = PERSON_AND_ORGANIZATION ( #131, #23 ) ;
#85 = VECTOR ( 'NONE', #68, 39.37007874015748143 ) ;
#86 = DATE_AND_TIME ( #225, #140 ) ;
#87 = CARTESIAN_POINT ( 'NONE',  ( 0.000000000000000000, 0.02949999999999999845, 0.000000000000000000 ) ) ;
#88 = EDGE_LOOP ( 'NONE', ( #229, #95 ) ) ;
#89 = DIRECTION ( 'NONE',  ( 0.000000000000000000, 0.000000000000000000, 1.000000000000000000 ) ) ;
#90 = CALENDAR_DATE ( 2025, 27, 8 ) ;
#91 = APPROVAL_ROLE ( '' ) ;
#92 = VERTEX_POINT ( 'NONE', #106 ) ;
#93 = AXIS2_PLACEMENT_3D ( 'NONE', #185, #147, #224 ) ;
#94 = CALENDAR_DATE ( 2025, 27, 8 ) ;
#95 = ORIENTED_EDGE ( 'NONE', *, *, #1, .F. ) ;
#96 = ORIENTED_EDGE ( 'NONE', *, *, #26, .T. ) ;
#97 = CC_DESIGN_PERSON_AND_ORGANIZATION_ASSIGNMENT ( #243, #191, ( #32 ) ) ;
#98 = APPROVAL_DATE_TIME ( #59, #119 ) ;
#99 = FACE_OUTER_BOUND ( 'NONE', #43, .T. ) ;
#100 = ORIENTED_EDGE ( 'NONE', *, *, #78, .F. ) ;
#101 = AXIS2_PLACEMENT_3D ( 'NONE', #105, #186, #66 ) ;
#102 = CARTESIAN_POINT ( 'NONE',  ( 0.000000000000000000, -0.02949999999999999845, -0.3740000000000001101 ) ) ;
#103 = FACE_OUTER_BOUND ( 'NONE', #27, .T. ) ;
#104 = ORIENTED_EDGE ( 'NONE', *, *, #240, .F. ) ;
#105 = CARTESIAN_POINT ( 'NONE',  ( 0.000000000000000000, 0.02949999999999999845, 0.000000000000000000 ) ) ;
#106 = CARTESIAN_POINT ( 'NONE',  ( 4.580179028811100714E-17, -0.02949999999999999845, 0.3740000000000001101 ) ) ;
#107 = EDGE_CURVE ( 'NONE', #183, #92, #35, .T. ) ;
#108 = LOCAL_TIME ( 10, 16, 1.000000000000000000, #213 ) ;
#109 = PLANE ( 'NONE',  #234 ) ;
#110 = CC_DESIGN_PERSON_AND_ORGANIZATION_ASSIGNMENT ( #180, #53, ( #33 ) ) ;
#111 =( NAMED_UNIT ( * ) PLANE_ANGLE_UNIT ( ) SI_UNIT ( $, .RADIAN. ) );
#112 = CC_DESIGN_SECURITY_CLASSIFICATION ( #176, ( #33 ) ) ;
#113 = VECTOR ( 'NONE', #203, 39.37007874015748143 ) ;
#114 = VERTEX_POINT ( 'NONE', #29 ) ;
#115 = PRODUCT_DEFINITION ( 'UNKNOWN', '', #33, #143 ) ;
#116 = APPROVAL_PERSON_ORGANIZATION ( #84, #119, #228 ) ;
#117 = FACE_BOUND ( 'NONE', #221, .T. ) ;
#118 = AXIS2_PLACEMENT_3D ( 'NONE', #50, #65, #222 ) ;
#119 = APPROVAL ( #154, 'UNSPECIFIED' ) ;
#120 = CARTESIAN_POINT ( 'NONE',  ( 2.969768487932331114E-17, -0.02949999999999999845, 0.2425000000000000211 ) ) ;
#121 = AXIS2_PLACEMENT_3D ( 'NONE', #238, #164, #197 ) ;
#122 = VECTOR ( 'NONE', #125, 39.37007874015748143 ) ;
#123 = PRODUCT_RELATED_PRODUCT_CATEGORY ( 'detail', '', ( #32 ) ) ;
#124 = DIRECTION ( 'NONE',  ( -0.000000000000000000, -1.000000000000000000, -0.000000000000000000 ) ) ;
#125 = DIRECTION ( 'NONE',  ( -0.000000000000000000, -1.000000000000000000, -0.000000000000000000 ) ) ;
#126 = ADVANCED_FACE ( 'NONE', ( #144 ), #220, .F. ) ;
#127 = EDGE_CURVE ( 'NONE', #3, #199, #192, .T. ) ;
#128 = CARTESIAN_POINT ( 'NONE',  ( 0.000000000000000000, 0.02949999999999999845, -0.2425000000000000211 ) ) ;
#129 = CARTESIAN_POINT ( 'NONE',  ( 0.000000000000000000, -0.02949999999999999845, 0.000000000000000000 ) ) ;
#130 = APPLICATION_CONTEXT ( 'configuration controlled 3d designs of mechanical parts and assemblies' ) ;
#131 = PERSON ( 'UNSPECIFIED', 'UNSPECIFIED', 'UNSPECIFIED', ('UNSPECIFIED'), ('UNSPECIFIED'), ('UNSPECIFIED') ) ;
#132 = ADVANCED_FACE ( 'NONE', ( #51 ), #25, .T. ) ;
#133 = APPROVAL_STATUS ( 'not_yet_approved' ) ;
#134 = CIRCLE ( 'NONE', #172, 0.2425000000000000211 ) ;
#135 = ORIENTED_EDGE ( 'NONE', *, *, #145, .T. ) ;
#136 = PERSON_AND_ORGANIZATION ( #131, #23 ) ;
#137 = CC_DESIGN_PERSON_AND_ORGANIZATION_ASSIGNMENT ( #159, #74, ( #33 ) ) ;
#138 = LINE ( 'NONE', #245, #85 ) ;
#139 = VERTEX_POINT ( 'NONE', #223 ) ;
#140 = LOCAL_TIME ( 10, 16, 1.000000000000000000, #156 ) ;
#141 = AXIS2_PLACEMENT_3D ( 'NONE', #242, #46, #227 ) ;
#142 = ORIENTED_EDGE ( 'NONE', *, *, #60, .F. ) ;
#143 = DESIGN_CONTEXT ( 'detailed design', #130, 'design' ) ;
#144 = FACE_OUTER_BOUND ( 'NONE', #80, .T. ) ;
#145 = EDGE_CURVE ( 'NONE', #114, #183, #138, .T. ) ;
#146 = ORIENTED_EDGE ( 'NONE', *, *, #107, .T. ) ;
#147 = DIRECTION ( 'NONE',  ( -0.000000000000000000, -1.000000000000000000, -0.000000000000000000 ) ) ;
#148 = DIMENSIONAL_EXPONENTS ( 1.000000000000000000, 0.000000000000000000, 0.000000000000000000, 0.000000000000000000, 0.000000000000000000, 0.000000000000000000, 0.000000000000000000 ) ;
#149 = DIRECTION ( 'NONE',  ( 0.000000000000000000, -0.000000000000000000, 1.000000000000000000 ) ) ;
#150 = DIRECTION ( 'NONE',  ( 0.000000000000000000, 1.000000000000000000, 0.000000000000000000 ) ) ;
#151 = LINE ( 'NONE', #24, #214 ) ;
#152 = ORIENTED_EDGE ( 'NONE', *, *, #240, .T. ) ;
#153 = ADVANCED_FACE ( 'NONE', ( #15, #77 ), #109, .F. ) ;
#154 = APPROVAL_STATUS ( 'not_yet_approved' ) ;
#155 = DIRECTION ( 'NONE',  ( 1.000000000000000000, 0.000000000000000000, 0.000000000000000000 ) ) ;
#156 = COORDINATED_UNIVERSAL_TIME_OFFSET ( 5, 0, .BEHIND. ) ;
#157 = ORIENTED_EDGE ( 'NONE', *, *, #127, .F. ) ;
#158 = AXIS2_PLACEMENT_3D ( 'NONE', #49, #124, #201 ) ;
#159 = PERSON_AND_ORGANIZATION ( #131, #23 ) ;
#160 = CARTESIAN_POINT ( 'NONE',  ( 2.969768487932331114E-17, 0.02949999999999999845, 0.2425000000000000211 ) ) ;
#161 = ADVANCED_BREP_SHAPE_REPRESENTATION ( 'GSK-JIS22-NI', ( #204, #165 ), #39 ) ;
#162 = FACE_OUTER_BOUND ( 'NONE', #187, .T. ) ;
#163 = DIRECTION ( 'NONE',  ( 0.000000000000000000, 1.000000000000000000, 0.000000000000000000 ) ) ;
#164 = DIRECTION ( 'NONE',  ( 0.000000000000000000, 1.000000000000000000, 0.000000000000000000 ) ) ;
#165 = AXIS2_PLACEMENT_3D ( 'NONE', #9, #188, #155 ) ;
#166 = LINE ( 'NONE', #128, #113 ) ;
#167 = CC_DESIGN_PERSON_AND_ORGANIZATION_ASSIGNMENT ( #177, #14, ( #115 ) ) ;
#168 = DATE_AND_TIME ( #216, #175 ) ;
#169 = CARTESIAN_POINT ( 'NONE',  ( 2.969768487932331114E-17, 0.02949999999999999845, 0.2425000000000000211 ) ) ;
#170 = APPLICATION_PROTOCOL_DEFINITION ( 'international standard', 'config_control_design', 1994, #11 ) ;
#171 = ORIENTED_EDGE ( 'NONE', *, *, #13, .F. ) ;
#172 = AXIS2_PLACEMENT_3D ( 'NONE', #82, #163, #182 ) ;
#173 =( LENGTH_UNIT ( ) NAMED_UNIT ( * ) SI_UNIT ( $, .METRE. ) );
#174 = SECURITY_CLASSIFICATION_LEVEL ( 'unclassified' ) ;
#175 = LOCAL_TIME ( 10, 16, 1.000000000000000000, #76 ) ;
#176 = SECURITY_CLASSIFICATION ( '', '', #174 ) ;
#177 = PERSON_AND_ORGANIZATION ( #131, #23 ) ;
#178 = LINE ( 'NONE', #169, #122 ) ;
#179 = AXIS2_PLACEMENT_3D ( 'NONE', #129, #150, #71 ) ;
#180 = PERSON_AND_ORGANIZATION ( #131, #23 ) ;
#181 = DIRECTION ( 'NONE',  ( 0.000000000000000000, 1.000000000000000000, 0.000000000000000000 ) ) ;
#182 = DIRECTION ( 'NONE',  ( 0.000000000000000000, 0.000000000000000000, 1.000000000000000000 ) ) ;
#183 = VERTEX_POINT ( 'NONE', #102 ) ;
#184 = AXIS2_PLACEMENT_3D ( 'NONE', #189, #226, #28 ) ;
#185 = CARTESIAN_POINT ( 'NONE',  ( 0.000000000000000000, 0.02949999999999999845, 0.000000000000000000 ) ) ;
#186 = DIRECTION ( 'NONE',  ( 0.000000000000000000, 1.000000000000000000, 0.000000000000000000 ) ) ;
#187 = EDGE_LOOP ( 'NONE', ( #104, #96, #235, #157 ) ) ;
#188 = DIRECTION ( 'NONE',  ( 0.000000000000000000, 0.000000000000000000, 1.000000000000000000 ) ) ;
#189 = CARTESIAN_POINT ( 'NONE',  ( 0.000000000000000000, 0.02949999999999999845, 0.000000000000000000 ) ) ;
#190 = PERSON_AND_ORGANIZATION ( #131, #23 ) ;
#191 = PERSON_AND_ORGANIZATION_ROLE ( 'design_owner' ) ;
#192 = CIRCLE ( 'NONE', #179, 0.2425000000000000211 ) ;
#193 = CC_DESIGN_PERSON_AND_ORGANIZATION_ASSIGNMENT ( #136, #12, ( #176 ) ) ;
#194 = DATE_AND_TIME ( #94, #79 ) ;
#195 = CC_DESIGN_DATE_AND_TIME_ASSIGNMENT ( #86, #250, ( #115 ) ) ;
#196 = CIRCLE ( 'NONE', #54, 0.2425000000000000211 ) ;
#197 = DIRECTION ( 'NONE',  ( 0.000000000000000000, 0.000000000000000000, 1.000000000000000000 ) ) ;
#198 = DATE_AND_TIME ( #90, #69 ) ;
#199 = VERTEX_POINT ( 'NONE', #6 ) ;
#200 = CIRCLE ( 'NONE', #101, 0.3740000000000001101 ) ;
#201 = DIRECTION ( 'NONE',  ( 0.000000000000000000, 0.000000000000000000, -1.000000000000000000 ) ) ;
#202 = CARTESIAN_POINT ( 'NONE',  ( 0.000000000000000000, 0.02949999999999999845, 0.000000000000000000 ) ) ;
#203 = DIRECTION ( 'NONE',  ( -0.000000000000000000, -1.000000000000000000, -0.000000000000000000 ) ) ;
#204 = MANIFOLD_SOLID_BREP ( 'Boss-Extrude1', #16 ) ;
#205 = APPROVAL_PERSON_ORGANIZATION ( #63, #73, #230 ) ;
#206 = CIRCLE ( 'NONE', #58, 0.2425000000000000211 ) ;
#207 = ADVANCED_FACE ( 'NONE', ( #103 ), #2, .T. ) ;
#208 = ORIENTED_EDGE ( 'NONE', *, *, #246, .F. ) ;
#209 = DATE_TIME_ROLE ( 'classification_date' ) ;
#210 = CC_DESIGN_DATE_AND_TIME_ASSIGNMENT ( #168, #209, ( #176 ) ) ;
#211 = CIRCLE ( 'NONE', #184, 0.3740000000000001101 ) ;
#212 = EDGE_CURVE ( 'NONE', #114, #61, #200, .T. ) ;
#213 = COORDINATED_UNIVERSAL_TIME_OFFSET ( 5, 0, .BEHIND. ) ;
#214 = VECTOR ( 'NONE', #241, 39.37007874015748143 ) ;
#215 = CC_DESIGN_APPROVAL ( #119, ( #176 ) ) ;
#216 = CALENDAR_DATE ( 2025, 27, 8 ) ;
#217 = CARTESIAN_POINT ( 'NONE',  ( 0.000000000000000000, 0.02949999999999999845, 0.000000000000000000 ) ) ;
#218 = CARTESIAN_POINT ( 'NONE',  ( 0.000000000000000000, -0.02949999999999999845, 0.000000000000000000 ) ) ;
#219 = DIRECTION ( 'NONE',  ( 0.000000000000000000, 0.000000000000000000, 1.000000000000000000 ) ) ;
#220 = CYLINDRICAL_SURFACE ( 'NONE', #93, 0.2425000000000000211 ) ;
#221 = EDGE_LOOP ( 'NONE', ( #100, #252 ) ) ;
#222 = DIRECTION ( 'NONE',  ( 0.000000000000000000, 0.000000000000000000, -1.000000000000000000 ) ) ;
#223 = CARTESIAN_POINT ( 'NONE',  ( 0.000000000000000000, 0.02949999999999999845, -0.2425000000000000211 ) ) ;
#224 = DIRECTION ( 'NONE',  ( 0.000000000000000000, 0.000000000000000000, -1.000000000000000000 ) ) ;
#225 = CALENDAR_DATE ( 2025, 27, 8 ) ;
#226 = DIRECTION ( 'NONE',  ( 0.000000000000000000, 1.000000000000000000, 0.000000000000000000 ) ) ;
#227 = DIRECTION ( 'NONE',  ( 0.000000000000000000, 0.000000000000000000, 1.000000000000000000 ) ) ;
#228 = APPROVAL_ROLE ( '' ) ;
#229 = ORIENTED_EDGE ( 'NONE', *, *, #107, .F. ) ;
#230 = APPROVAL_ROLE ( '' ) ;
#231 = APPROVAL_DATE_TIME ( #198, #70 ) ;
#232 = EDGE_LOOP ( 'NONE', ( #21, #48 ) ) ;
#233 = SHAPE_DEFINITION_REPRESENTATION ( #5, #161 ) ;
#234 = AXIS2_PLACEMENT_3D ( 'NONE', #248, #10, #30 ) ;
#235 = ORIENTED_EDGE ( 'NONE', *, *, #246, .T. ) ;
#236 = DIRECTION ( 'NONE',  ( -0.000000000000000000, -1.000000000000000000, -0.000000000000000000 ) ) ;
#237 = APPROVAL_DATE_TIME ( #194, #73 ) ;
#238 = CARTESIAN_POINT ( 'NONE',  ( 0.000000000000000000, -0.02949999999999999845, 0.000000000000000000 ) ) ;
#239 = ORIENTED_EDGE ( 'NONE', *, *, #145, .F. ) ;
#240 = EDGE_CURVE ( 'NONE', #62, #3, #178, .T. ) ;
#241 = DIRECTION ( 'NONE',  ( -0.000000000000000000, -1.000000000000000000, -0.000000000000000000 ) ) ;
#242 = CARTESIAN_POINT ( 'NONE',  ( 0.000000000000000000, -0.02949999999999999845, 0.000000000000000000 ) ) ;
#243 = PERSON_AND_ORGANIZATION ( #131, #23 ) ;
#244 = ORIENTED_EDGE ( 'NONE', *, *, #1, .T. ) ;
#245 = CARTESIAN_POINT ( 'NONE',  ( 0.000000000000000000, 0.02949999999999999845, -0.3740000000000001101 ) ) ;
#246 = EDGE_CURVE ( 'NONE', #139, #199, #166, .T. ) ;
#247 = DIRECTION ( 'NONE',  ( 0.000000000000000000, 1.000000000000000000, 0.000000000000000000 ) ) ;
#248 = CARTESIAN_POINT ( 'NONE',  ( 0.000000000000000000, -0.02949999999999999845, 0.000000000000000000 ) ) ;
#249 = COORDINATED_UNIVERSAL_TIME_OFFSET ( 5, 0, .BEHIND. ) ;
#250 = DATE_TIME_ROLE ( 'creation_date' ) ;
#251 = MECHANICAL_CONTEXT ( 'NONE', #11, 'mechanical' ) ;
#252 = ORIENTED_EDGE ( 'NONE', *, *, #26, .F. ) ;
ENDSEC;
END-ISO-10303-21;
