ISO-10303-21;
HEADER;
FILE_DESCRIPTION (( 'STEP AP203' ),
    '1' );
FILE_NAME ('GSK-JIS26-K.STEP',
    '2025-08-27T14:28:03',
    ( '' ),
    ( '' ),
    'SwSTEP 2.0',
    'SolidWorks 2018',
    '' );
FILE_SCHEMA (( 'CONFIG_CONTROL_DESIGN' ));
ENDSEC;

DATA;
#1 =( GEOMETRIC_REPRESENTATION_CONTEXT ( 3 ) GLOBAL_UNCERTAINTY_ASSIGNED_CONTEXT ( ( #35 ) ) GLOBAL_UNIT_ASSIGNED_CONTEXT ( ( #16, #34, #240 ) ) REPRESENTATION_CONTEXT ( 'NONE', 'WORKASPACE' ) );
#2 = ORIENTED_EDGE ( 'NONE', *, *, #101, .F. ) ;
#3 = DIRECTION ( 'NONE',  ( 0.000000000000000000, -0.000000000000000000, 1.000000000000000000 ) ) ;
#4 = EDGE_LOOP ( 'NONE', ( #36, #102 ) ) ;
#5 = DIRECTION ( 'NONE',  ( 0.000000000000000000, 1.000000000000000000, 0.000000000000000000 ) ) ;
#6 = CARTESIAN_POINT ( 'NONE',  ( 0.000000000000000000, -0.03549999999999999684, 0.000000000000000000 ) ) ;
#7 = AXIS2_PLACEMENT_3D ( 'NONE', #180, #126, #68 ) ;
#8 = COORDINATED_UNIVERSAL_TIME_OFFSET ( 5, 0, .BEHIND. ) ;
#9 = CYLINDRICAL_SURFACE ( 'NONE', #241, 0.4530000000000000138 ) ;
#10 = ADVANCED_FACE ( 'NONE', ( #108 ), #14, .T. ) ;
#11 = DIRECTION ( 'NONE',  ( 0.000000000000000000, 1.000000000000000000, 0.000000000000000000 ) ) ;
#12 = DIRECTION ( 'NONE',  ( -0.000000000000000000, -1.000000000000000000, -0.000000000000000000 ) ) ;
#13 = CARTESIAN_POINT ( 'NONE',  ( 0.000000000000000000, 0.03549999999999999684, 0.000000000000000000 ) ) ;
#14 = CYLINDRICAL_SURFACE ( 'NONE', #125, 0.4530000000000000138 ) ;
#15 = ORIENTED_EDGE ( 'NONE', *, *, #115, .T. ) ;
#16 =( CONVERSION_BASED_UNIT ( 'INCH', #220 ) LENGTH_UNIT ( ) NAMED_UNIT ( #143 ) );
#17 = ADVANCED_BREP_SHAPE_REPRESENTATION ( 'GSK-JIS26-K', ( #82, #89 ), #1 ) ;
#18 = PERSON_AND_ORGANIZATION ( #156, #175 ) ;
#19 = CIRCLE ( 'NONE', #7, 0.4530000000000000138 ) ;
#20 = APPLICATION_CONTEXT ( 'configuration controlled 3d designs of mechanical parts and assemblies' ) ;
#21 = LOCAL_TIME ( 10, 28, 3.000000000000000000, #170 ) ;
#22 = AXIS2_PLACEMENT_3D ( 'NONE', #105, #164, #52 ) ;
#23 = CIRCLE ( 'NONE', #249, 0.2425000000000000211 ) ;
#24 = AXIS2_PLACEMENT_3D ( 'NONE', #93, #226, #109 ) ;
#25 = DIRECTION ( 'NONE',  ( 0.000000000000000000, 0.000000000000000000, 1.000000000000000000 ) ) ;
#26 = CARTESIAN_POINT ( 'NONE',  ( 0.000000000000000000, -0.03549999999999999684, 0.000000000000000000 ) ) ;
#27 = ORIENTED_EDGE ( 'NONE', *, *, #103, .T. ) ;
#28 = CC_DESIGN_APPROVAL ( #113, ( #79 ) ) ;
#29 = DIRECTION ( 'NONE',  ( 0.000000000000000000, 0.000000000000000000, 1.000000000000000000 ) ) ;
#30 = AXIS2_PLACEMENT_3D ( 'NONE', #26, #5, #3 ) ;
#31 = APPROVAL_DATE_TIME ( #91, #84 ) ;
#32 = CARTESIAN_POINT ( 'NONE',  ( 0.000000000000000000, -0.03549999999999999684, -0.4530000000000000138 ) ) ;
#33 = CARTESIAN_POINT ( 'NONE',  ( 0.000000000000000000, 0.03549999999999999684, 0.000000000000000000 ) ) ;
#34 =( NAMED_UNIT ( * ) PLANE_ANGLE_UNIT ( ) SI_UNIT ( $, .RADIAN. ) );
#35 = UNCERTAINTY_MEASURE_WITH_UNIT (LENGTH_MEASURE( 1.000000000000000082E-05 ), #16, 'distance_accuracy_value', 'NONE');
#36 = ORIENTED_EDGE ( 'NONE', *, *, #172, .F. ) ;
#37 = APPROVAL_STATUS ( 'not_yet_approved' ) ;
#38 = PERSON_AND_ORGANIZATION_ROLE ( 'design_owner' ) ;
#39 = DATE_AND_TIME ( #111, #252 ) ;
#40 = VERTEX_POINT ( 'NONE', #104 ) ;
#41 = DATE_AND_TIME ( #152, #230 ) ;
#42 = EDGE_LOOP ( 'NONE', ( #234, #15 ) ) ;
#43 = FACE_OUTER_BOUND ( 'NONE', #248, .T. ) ;
#44 = LINE ( 'NONE', #123, #191 ) ;
#45 = ORIENTED_EDGE ( 'NONE', *, *, #101, .T. ) ;
#46 = DIRECTION ( 'NONE',  ( -0.000000000000000000, -1.000000000000000000, -0.000000000000000000 ) ) ;
#47 = CIRCLE ( 'NONE', #229, 0.4530000000000000138 ) ;
#48 = ORIENTED_EDGE ( 'NONE', *, *, #61, .F. ) ;
#49 = ADVANCED_FACE ( 'NONE', ( #224, #214 ), #117, .F. ) ;
#50 = EDGE_CURVE ( 'NONE', #216, #74, #85, .T. ) ;
#51 = FACE_BOUND ( 'NONE', #4, .T. ) ;
#52 = DIRECTION ( 'NONE',  ( 0.000000000000000000, 0.000000000000000000, 1.000000000000000000 ) ) ;
#53 = PERSON_AND_ORGANIZATION_ROLE ( 'design_supplier' ) ;
#54 = VECTOR ( 'NONE', #12, 39.37007874015748143 ) ;
#55 = SECURITY_CLASSIFICATION_LEVEL ( 'unclassified' ) ;
#56 = PRODUCT_DEFINITION ( 'UNKNOWN', '', #199, #184 ) ;
#57 = APPROVAL_STATUS ( 'not_yet_approved' ) ;
#58 = VERTEX_POINT ( 'NONE', #237 ) ;
#59 = ORIENTED_EDGE ( 'NONE', *, *, #151, .T. ) ;
#60 = COORDINATED_UNIVERSAL_TIME_OFFSET ( 5, 0, .BEHIND. ) ;
#61 = EDGE_CURVE ( 'NONE', #120, #40, #197, .T. ) ;
#62 = CLOSED_SHELL ( 'NONE', ( #94, #221, #107, #49, #10, #162 ) ) ;
#63 = DIRECTION ( 'NONE',  ( 0.000000000000000000, 0.000000000000000000, -1.000000000000000000 ) ) ;
#64 = CARTESIAN_POINT ( 'NONE',  ( 0.000000000000000000, 0.03549999999999999684, 0.000000000000000000 ) ) ;
#65 = CARTESIAN_POINT ( 'NONE',  ( 0.000000000000000000, 0.03549999999999999684, -0.2425000000000000211 ) ) ;
#66 = APPROVAL_PERSON_ORGANIZATION ( #128, #194, #166 ) ;
#67 = LINE ( 'NONE', #177, #148 ) ;
#68 = DIRECTION ( 'NONE',  ( 0.000000000000000000, 0.000000000000000000, 1.000000000000000000 ) ) ;
#69 = AXIS2_PLACEMENT_3D ( 'NONE', #96, #242, #163 ) ;
#70 = CALENDAR_DATE ( 2025, 27, 8 ) ;
#71 = DIRECTION ( 'NONE',  ( 0.000000000000000000, 1.000000000000000000, 0.000000000000000000 ) ) ;
#72 = CARTESIAN_POINT ( 'NONE',  ( 0.000000000000000000, -0.03549999999999999684, 0.000000000000000000 ) ) ;
#73 = APPROVAL_PERSON_ORGANIZATION ( #18, #84, #251 ) ;
#74 = VERTEX_POINT ( 'NONE', #203 ) ;
#75 = DIRECTION ( 'NONE',  ( 1.000000000000000000, 0.000000000000000000, 0.000000000000000000 ) ) ;
#76 = EDGE_CURVE ( 'NONE', #150, #74, #153, .T. ) ;
#77 = MECHANICAL_CONTEXT ( 'NONE', #142, 'mechanical' ) ;
#78 = APPROVAL_ROLE ( '' ) ;
#79 = SECURITY_CLASSIFICATION ( '', '', #55 ) ;
#80 = APPROVAL_DATE_TIME ( #219, #194 ) ;
#81 = LINE ( 'NONE', #88, #54 ) ;
#82 = MANIFOLD_SOLID_BREP ( 'Boss-Extrude1', #62 ) ;
#83 = ORIENTED_EDGE ( 'NONE', *, *, #127, .F. ) ;
#84 = APPROVAL ( #57, 'UNSPECIFIED' ) ;
#85 = CIRCLE ( 'NONE', #121, 0.2425000000000000211 ) ;
#86 = ORIENTED_EDGE ( 'NONE', *, *, #205, .T. ) ;
#87 = ORIENTED_EDGE ( 'NONE', *, *, #205, .F. ) ;
#88 = CARTESIAN_POINT ( 'NONE',  ( 0.000000000000000000, 0.03549999999999999684, -0.2425000000000000211 ) ) ;
#89 = AXIS2_PLACEMENT_3D ( 'NONE', #122, #193, #75 ) ;
#90 =( LENGTH_UNIT ( ) NAMED_UNIT ( * ) SI_UNIT ( $, .METRE. ) );
#91 = DATE_AND_TIME ( #167, #179 ) ;
#92 = VERTEX_POINT ( 'NONE', #65 ) ;
#93 = CARTESIAN_POINT ( 'NONE',  ( 0.000000000000000000, 0.03549999999999999684, 0.000000000000000000 ) ) ;
#94 = ADVANCED_FACE ( 'NONE', ( #106 ), #215, .F. ) ;
#95 = AXIS2_PLACEMENT_3D ( 'NONE', #157, #155, #63 ) ;
#96 = CARTESIAN_POINT ( 'NONE',  ( 0.000000000000000000, -0.03549999999999999684, 0.000000000000000000 ) ) ;
#97 = APPROVAL_PERSON_ORGANIZATION ( #147, #113, #78 ) ;
#98 = CIRCLE ( 'NONE', #138, 0.2425000000000000211 ) ;
#99 = ORIENTED_EDGE ( 'NONE', *, *, #218, .T. ) ;
#100 = CC_DESIGN_APPROVAL ( #84, ( #56 ) ) ;
#101 = EDGE_CURVE ( 'NONE', #58, #120, #67, .T. ) ;
#102 = ORIENTED_EDGE ( 'NONE', *, *, #218, .F. ) ;
#103 = EDGE_CURVE ( 'NONE', #92, #216, #81, .T. ) ;
#104 = CARTESIAN_POINT ( 'NONE',  ( 5.547650000137510070E-17, -0.03549999999999999684, 0.4530000000000000138 ) ) ;
#105 = CARTESIAN_POINT ( 'NONE',  ( 0.000000000000000000, 0.03549999999999999684, 0.000000000000000000 ) ) ;
#106 = FACE_OUTER_BOUND ( 'NONE', #130, .T. ) ;
#107 = ADVANCED_FACE ( 'NONE', ( #140, #51 ), #246, .T. ) ;
#108 = FACE_OUTER_BOUND ( 'NONE', #141, .T. ) ;
#109 = DIRECTION ( 'NONE',  ( 0.000000000000000000, 0.000000000000000000, -1.000000000000000000 ) ) ;
#110 = APPLICATION_PROTOCOL_DEFINITION ( 'international standard', 'config_control_design', 1994, #142 ) ;
#111 = CALENDAR_DATE ( 2025, 27, 8 ) ;
#112 = CC_DESIGN_PERSON_AND_ORGANIZATION_ASSIGNMENT ( #204, #38, ( #239 ) ) ;
#113 = APPROVAL ( #37, 'UNSPECIFIED' ) ;
#114 = VECTOR ( 'NONE', #136, 39.37007874015748143 ) ;
#115 = EDGE_CURVE ( 'NONE', #74, #216, #23, .T. ) ;
#116 = DIRECTION ( 'NONE',  ( 0.000000000000000000, 1.000000000000000000, 0.000000000000000000 ) ) ;
#117 = PLANE ( 'NONE',  #30 ) ;
#118 = DIRECTION ( 'NONE',  ( 0.000000000000000000, 1.000000000000000000, 0.000000000000000000 ) ) ;
#119 = LOCAL_TIME ( 10, 28, 3.000000000000000000, #8 ) ;
#120 = VERTEX_POINT ( 'NONE', #32 ) ;
#121 = AXIS2_PLACEMENT_3D ( 'NONE', #134, #118, #25 ) ;
#122 = CARTESIAN_POINT ( 'NONE',  ( 0.000000000000000000, 0.000000000000000000, 0.000000000000000000 ) ) ;
#123 = CARTESIAN_POINT ( 'NONE',  ( 5.547650000137510070E-17, 0.03549999999999999684, 0.4530000000000000138 ) ) ;
#124 = DIRECTION ( 'NONE',  ( 0.000000000000000000, 1.000000000000000000, 0.000000000000000000 ) ) ;
#125 = AXIS2_PLACEMENT_3D ( 'NONE', #64, #201, #235 ) ;
#126 = DIRECTION ( 'NONE',  ( 0.000000000000000000, 1.000000000000000000, 0.000000000000000000 ) ) ;
#127 = EDGE_CURVE ( 'NONE', #58, #232, #47, .T. ) ;
#128 = PERSON_AND_ORGANIZATION ( #156, #175 ) ;
#129 = CC_DESIGN_DATE_AND_TIME_ASSIGNMENT ( #223, #188, ( #56 ) ) ;
#130 = EDGE_LOOP ( 'NONE', ( #236, #202, #132, #196 ) ) ;
#131 = APPROVAL_DATE_TIME ( #41, #113 ) ;
#132 = ORIENTED_EDGE ( 'NONE', *, *, #50, .F. ) ;
#133 = CIRCLE ( 'NONE', #69, 0.4530000000000000138 ) ;
#134 = CARTESIAN_POINT ( 'NONE',  ( 0.000000000000000000, -0.03549999999999999684, 0.000000000000000000 ) ) ;
#135 = COORDINATED_UNIVERSAL_TIME_OFFSET ( 5, 0, .BEHIND. ) ;
#136 = DIRECTION ( 'NONE',  ( -0.000000000000000000, -1.000000000000000000, -0.000000000000000000 ) ) ;
#137 = EDGE_LOOP ( 'NONE', ( #181, #59 ) ) ;
#138 = AXIS2_PLACEMENT_3D ( 'NONE', #245, #124, #185 ) ;
#139 = DIRECTION ( 'NONE',  ( 0.000000000000000000, 0.000000000000000000, 1.000000000000000000 ) ) ;
#140 = FACE_OUTER_BOUND ( 'NONE', #137, .T. ) ;
#141 = EDGE_LOOP ( 'NONE', ( #87, #83, #45, #192 ) ) ;
#142 = APPLICATION_CONTEXT ( 'configuration controlled 3d designs of mechanical parts and assemblies' ) ;
#143 = DIMENSIONAL_EXPONENTS ( 1.000000000000000000, 0.000000000000000000, 0.000000000000000000, 0.000000000000000000, 0.000000000000000000, 0.000000000000000000, 0.000000000000000000 ) ;
#144 = DIRECTION ( 'NONE',  ( 0.000000000000000000, 0.000000000000000000, -1.000000000000000000 ) ) ;
#145 = ORIENTED_EDGE ( 'NONE', *, *, #115, .F. ) ;
#146 = PERSON_AND_ORGANIZATION_ROLE ( 'creator' ) ;
#147 = PERSON_AND_ORGANIZATION ( #156, #175 ) ;
#148 = VECTOR ( 'NONE', #46, 39.37007874015748143 ) ;
#149 = CC_DESIGN_APPROVAL ( #194, ( #199 ) ) ;
#150 = VERTEX_POINT ( 'NONE', #225 ) ;
#151 = EDGE_CURVE ( 'NONE', #232, #58, #19, .T. ) ;
#152 = CALENDAR_DATE ( 2025, 27, 8 ) ;
#153 = LINE ( 'NONE', #238, #114 ) ;
#154 = ORIENTED_EDGE ( 'NONE', *, *, #210, .T. ) ;
#155 = DIRECTION ( 'NONE',  ( -0.000000000000000000, -1.000000000000000000, -0.000000000000000000 ) ) ;
#156 = PERSON ( 'UNSPECIFIED', 'UNSPECIFIED', 'UNSPECIFIED', ('UNSPECIFIED'), ('UNSPECIFIED'), ('UNSPECIFIED') ) ;
#157 = CARTESIAN_POINT ( 'NONE',  ( 0.000000000000000000, 0.03549999999999999684, 0.000000000000000000 ) ) ;
#158 = PERSON_AND_ORGANIZATION ( #156, #175 ) ;
#159 = AXIS2_PLACEMENT_3D ( 'NONE', #6, #116, #139 ) ;
#160 = DIRECTION ( 'NONE',  ( 0.000000000000000000, -0.000000000000000000, 1.000000000000000000 ) ) ;
#161 = CARTESIAN_POINT ( 'NONE',  ( 0.000000000000000000, 0.03549999999999999684, 0.000000000000000000 ) ) ;
#162 = ADVANCED_FACE ( 'NONE', ( #209 ), #243, .F. ) ;
#163 = DIRECTION ( 'NONE',  ( 0.000000000000000000, 0.000000000000000000, 1.000000000000000000 ) ) ;
#164 = DIRECTION ( 'NONE',  ( 0.000000000000000000, 1.000000000000000000, 0.000000000000000000 ) ) ;
#165 = DIRECTION ( 'NONE',  ( -0.000000000000000000, -1.000000000000000000, -0.000000000000000000 ) ) ;
#166 = APPROVAL_ROLE ( '' ) ;
#167 = CALENDAR_DATE ( 2025, 27, 8 ) ;
#168 = APPLICATION_PROTOCOL_DEFINITION ( 'international standard', 'config_control_design', 1994, #20 ) ;
#169 = PERSON_AND_ORGANIZATION ( #156, #175 ) ;
#170 = COORDINATED_UNIVERSAL_TIME_OFFSET ( 5, 0, .BEHIND. ) ;
#171 = ORIENTED_EDGE ( 'NONE', *, *, #151, .F. ) ;
#172 = EDGE_CURVE ( 'NONE', #92, #150, #98, .T. ) ;
#173 = CC_DESIGN_PERSON_AND_ORGANIZATION_ASSIGNMENT ( #186, #211, ( #199 ) ) ;
#174 = EDGE_LOOP ( 'NONE', ( #198, #99, #27, #145 ) ) ;
#175 = ORGANIZATION ( 'UNSPECIFIED', 'UNSPECIFIED', '' ) ;
#176 = EDGE_LOOP ( 'NONE', ( #48, #228 ) ) ;
#177 = CARTESIAN_POINT ( 'NONE',  ( 0.000000000000000000, 0.03549999999999999684, -0.4530000000000000138 ) ) ;
#178 = CARTESIAN_POINT ( 'NONE',  ( 0.000000000000000000, -0.03549999999999999684, -0.2425000000000000211 ) ) ;
#179 = LOCAL_TIME ( 10, 28, 3.000000000000000000, #247 ) ;
#180 = CARTESIAN_POINT ( 'NONE',  ( 0.000000000000000000, 0.03549999999999999684, 0.000000000000000000 ) ) ;
#181 = ORIENTED_EDGE ( 'NONE', *, *, #127, .T. ) ;
#182 = CC_DESIGN_PERSON_AND_ORGANIZATION_ASSIGNMENT ( #227, #146, ( #56 ) ) ;
#183 = DIRECTION ( 'NONE',  ( 0.000000000000000000, 0.000000000000000000, 1.000000000000000000 ) ) ;
#184 = DESIGN_CONTEXT ( 'detailed design', #20, 'design' ) ;
#185 = DIRECTION ( 'NONE',  ( 0.000000000000000000, 0.000000000000000000, 1.000000000000000000 ) ) ;
#186 = PERSON_AND_ORGANIZATION ( #156, #175 ) ;
#187 = APPROVAL_STATUS ( 'not_yet_approved' ) ;
#188 = DATE_TIME_ROLE ( 'creation_date' ) ;
#189 = AXIS2_PLACEMENT_3D ( 'NONE', #33, #71, #160 ) ;
#190 = DATE_TIME_ROLE ( 'classification_date' ) ;
#191 = VECTOR ( 'NONE', #165, 39.37007874015748143 ) ;
#192 = ORIENTED_EDGE ( 'NONE', *, *, #61, .T. ) ;
#193 = DIRECTION ( 'NONE',  ( 0.000000000000000000, 0.000000000000000000, 1.000000000000000000 ) ) ;
#194 = APPROVAL ( #187, 'UNSPECIFIED' ) ;
#195 = CC_DESIGN_PERSON_AND_ORGANIZATION_ASSIGNMENT ( #169, #53, ( #199 ) ) ;
#196 = ORIENTED_EDGE ( 'NONE', *, *, #103, .F. ) ;
#197 = CIRCLE ( 'NONE', #159, 0.4530000000000000138 ) ;
#198 = ORIENTED_EDGE ( 'NONE', *, *, #76, .F. ) ;
#199 = PRODUCT_DEFINITION_FORMATION_WITH_SPECIFIED_SOURCE ( 'ANY', '', #239, .NOT_KNOWN. ) ;
#200 = CIRCLE ( 'NONE', #22, 0.2425000000000000211 ) ;
#201 = DIRECTION ( 'NONE',  ( -0.000000000000000000, -1.000000000000000000, -0.000000000000000000 ) ) ;
#202 = ORIENTED_EDGE ( 'NONE', *, *, #76, .T. ) ;
#203 = CARTESIAN_POINT ( 'NONE',  ( 2.969768487932331731E-17, -0.03549999999999999684, 0.2425000000000000211 ) ) ;
#204 = PERSON_AND_ORGANIZATION ( #156, #175 ) ;
#205 = EDGE_CURVE ( 'NONE', #232, #40, #44, .T. ) ;
#206 = DIRECTION ( 'NONE',  ( -0.000000000000000000, -1.000000000000000000, -0.000000000000000000 ) ) ;
#207 = PRODUCT_RELATED_PRODUCT_CATEGORY ( 'detail', '', ( #239 ) ) ;
#208 = DIRECTION ( 'NONE',  ( 0.000000000000000000, 1.000000000000000000, 0.000000000000000000 ) ) ;
#209 = FACE_OUTER_BOUND ( 'NONE', #174, .T. ) ;
#210 = EDGE_CURVE ( 'NONE', #40, #120, #133, .T. ) ;
#211 = PERSON_AND_ORGANIZATION_ROLE ( 'creator' ) ;
#212 = SHAPE_DEFINITION_REPRESENTATION ( #250, #17 ) ;
#213 = PERSON_AND_ORGANIZATION_ROLE ( 'classification_officer' ) ;
#214 = FACE_BOUND ( 'NONE', #42, .T. ) ;
#215 = CYLINDRICAL_SURFACE ( 'NONE', #95, 0.2425000000000000211 ) ;
#216 = VERTEX_POINT ( 'NONE', #178 ) ;
#217 = CC_DESIGN_PERSON_AND_ORGANIZATION_ASSIGNMENT ( #158, #213, ( #79 ) ) ;
#218 = EDGE_CURVE ( 'NONE', #150, #92, #200, .T. ) ;
#219 = DATE_AND_TIME ( #70, #21 ) ;
#220 = LENGTH_MEASURE_WITH_UNIT ( LENGTH_MEASURE( 0.02539999999999999897 ), #90 );
#221 = ADVANCED_FACE ( 'NONE', ( #43 ), #9, .T. ) ;
#222 = CC_DESIGN_DATE_AND_TIME_ASSIGNMENT ( #39, #190, ( #79 ) ) ;
#223 = DATE_AND_TIME ( #233, #119 ) ;
#224 = FACE_OUTER_BOUND ( 'NONE', #176, .T. ) ;
#225 = CARTESIAN_POINT ( 'NONE',  ( 2.969768487932331731E-17, 0.03549999999999999684, 0.2425000000000000211 ) ) ;
#226 = DIRECTION ( 'NONE',  ( -0.000000000000000000, -1.000000000000000000, -0.000000000000000000 ) ) ;
#227 = PERSON_AND_ORGANIZATION ( #156, #175 ) ;
#228 = ORIENTED_EDGE ( 'NONE', *, *, #210, .F. ) ;
#229 = AXIS2_PLACEMENT_3D ( 'NONE', #161, #208, #29 ) ;
#230 = LOCAL_TIME ( 10, 28, 3.000000000000000000, #60 ) ;
#231 = CC_DESIGN_SECURITY_CLASSIFICATION ( #79, ( #199 ) ) ;
#232 = VERTEX_POINT ( 'NONE', #244 ) ;
#233 = CALENDAR_DATE ( 2025, 27, 8 ) ;
#234 = ORIENTED_EDGE ( 'NONE', *, *, #50, .T. ) ;
#235 = DIRECTION ( 'NONE',  ( 0.000000000000000000, 0.000000000000000000, -1.000000000000000000 ) ) ;
#236 = ORIENTED_EDGE ( 'NONE', *, *, #172, .T. ) ;
#237 = CARTESIAN_POINT ( 'NONE',  ( 0.000000000000000000, 0.03549999999999999684, -0.4530000000000000138 ) ) ;
#238 = CARTESIAN_POINT ( 'NONE',  ( 2.969768487932331731E-17, 0.03549999999999999684, 0.2425000000000000211 ) ) ;
#239 = PRODUCT ( 'GSK-JIS26-K', 'GSK-JIS26-K', '', ( #77 ) ) ;
#240 =( NAMED_UNIT ( * ) SI_UNIT ( $, .STERADIAN. ) SOLID_ANGLE_UNIT ( ) );
#241 = AXIS2_PLACEMENT_3D ( 'NONE', #13, #206, #144 ) ;
#242 = DIRECTION ( 'NONE',  ( 0.000000000000000000, 1.000000000000000000, 0.000000000000000000 ) ) ;
#243 = CYLINDRICAL_SURFACE ( 'NONE', #24, 0.2425000000000000211 ) ;
#244 = CARTESIAN_POINT ( 'NONE',  ( 5.547650000137510070E-17, 0.03549999999999999684, 0.4530000000000000138 ) ) ;
#245 = CARTESIAN_POINT ( 'NONE',  ( 0.000000000000000000, 0.03549999999999999684, 0.000000000000000000 ) ) ;
#246 = PLANE ( 'NONE',  #189 ) ;
#247 = COORDINATED_UNIVERSAL_TIME_OFFSET ( 5, 0, .BEHIND. ) ;
#248 = EDGE_LOOP ( 'NONE', ( #171, #86, #154, #2 ) ) ;
#249 = AXIS2_PLACEMENT_3D ( 'NONE', #72, #11, #183 ) ;
#250 = PRODUCT_DEFINITION_SHAPE ( 'NONE', 'NONE',  #56 ) ;
#251 = APPROVAL_ROLE ( '' ) ;
#252 = LOCAL_TIME ( 10, 28, 3.000000000000000000, #135 ) ;
ENDSEC;
END-ISO-10303-21;
