ISO-10303-21;
HEADER;
FILE_DESCRIPTION (( 'STEP AP203' ),
    '1' );
FILE_NAME ('GSK-JIS26-T.STEP',
    '2025-08-27T14:36:24',
    ( '' ),
    ( '' ),
    'SwSTEP 2.0',
    'SolidWorks 2018',
    '' );
FILE_SCHEMA (( 'CONFIG_CONTROL_DESIGN' ));
ENDSEC;

DATA;
#1 = PERSON_AND_ORGANIZATION_ROLE ( 'creator' ) ;
#2 = PERSON_AND_ORGANIZATION ( #155, #237 ) ;
#3 = APPROVAL_PERSON_ORGANIZATION ( #222, #103, #210 ) ;
#4 = PRODUCT_DEFINITION ( 'UNKNOWN', '', #160, #28 ) ;
#5 = PERSON_AND_ORGANIZATION ( #155, #237 ) ;
#6 = CC_DESIGN_APPROVAL ( #76, ( #160 ) ) ;
#7 = CARTESIAN_POINT ( 'NONE',  ( 0.000000000000000000, 0.03549999999999993439, -0.4530000000000000138 ) ) ;
#8 = AXIS2_PLACEMENT_3D ( 'NONE', #127, #31, #191 ) ;
#9 = ORIENTED_EDGE ( 'NONE', *, *, #131, .T. ) ;
#10 = DIRECTION ( 'NONE',  ( 0.000000000000000000, 0.000000000000000000, -1.000000000000000000 ) ) ;
#11 = DATE_AND_TIME ( #163, #89 ) ;
#12 = FACE_OUTER_BOUND ( 'NONE', #47, .T. ) ;
#13 = CARTESIAN_POINT ( 'NONE',  ( 2.969768487932331731E-17, 0.03549999999999993439, 0.2425000000000000211 ) ) ;
#14 =( NAMED_UNIT ( * ) PLANE_ANGLE_UNIT ( ) SI_UNIT ( $, .RADIAN. ) );
#15 = LOCAL_TIME ( 10, 36, 24.00000000000000000, #177 ) ;
#16 = LENGTH_MEASURE_WITH_UNIT ( LENGTH_MEASURE( 0.02539999999999999897 ), #190 );
#17 = PERSON_AND_ORGANIZATION_ROLE ( 'design_supplier' ) ;
#18 = ORIENTED_EDGE ( 'NONE', *, *, #235, .F. ) ;
#19 = SECURITY_CLASSIFICATION ( '', '', #115 ) ;
#20 = ORIENTED_EDGE ( 'NONE', *, *, #63, .F. ) ;
#21 = EDGE_LOOP ( 'NONE', ( #9, #144 ) ) ;
#22 = MANIFOLD_SOLID_BREP ( 'Boss-Extrude1', #193 ) ;
#23 = APPROVAL_DATE_TIME ( #128, #76 ) ;
#24 = COORDINATED_UNIVERSAL_TIME_OFFSET ( 5, 0, .BEHIND. ) ;
#25 = ORIENTED_EDGE ( 'NONE', *, *, #235, .T. ) ;
#26 = EDGE_LOOP ( 'NONE', ( #183, #180 ) ) ;
#27 = DIRECTION ( 'NONE',  ( 0.000000000000000000, -1.000000000000000000, 0.000000000000000000 ) ) ;
#28 = DESIGN_CONTEXT ( 'detailed design', #136, 'design' ) ;
#29 = DIRECTION ( 'NONE',  ( 0.000000000000000000, 1.000000000000000000, 0.000000000000000000 ) ) ;
#30 = EDGE_CURVE ( 'NONE', #113, #38, #116, .T. ) ;
#31 = DIRECTION ( 'NONE',  ( 0.000000000000000000, 1.000000000000000000, 0.000000000000000000 ) ) ;
#32 = DATE_AND_TIME ( #232, #214 ) ;
#33 = ORIENTED_EDGE ( 'NONE', *, *, #63, .T. ) ;
#34 = DIRECTION ( 'NONE',  ( 0.000000000000000000, 0.000000000000000000, -1.000000000000000000 ) ) ;
#35 = DIRECTION ( 'NONE',  ( 0.000000000000000000, 1.000000000000000000, 0.000000000000000000 ) ) ;
#36 = CYLINDRICAL_SURFACE ( 'NONE', #184, 0.2425000000000000211 ) ;
#37 = PERSON_AND_ORGANIZATION_ROLE ( 'design_owner' ) ;
#38 = VERTEX_POINT ( 'NONE', #65 ) ;
#39 = DATE_TIME_ROLE ( 'classification_date' ) ;
#40 = VECTOR ( 'NONE', #69, 39.37007874015748143 ) ;
#41 = APPROVAL_STATUS ( 'not_yet_approved' ) ;
#42 = CALENDAR_DATE ( 2025, 27, 8 ) ;
#43 = EDGE_LOOP ( 'NONE', ( #73, #81, #196, #197 ) ) ;
#44 = ORIENTED_EDGE ( 'NONE', *, *, #125, .F. ) ;
#45 = CARTESIAN_POINT ( 'NONE',  ( 5.547650000137510070E-17, 0.03549999999999993439, 0.4530000000000000138 ) ) ;
#46 = PERSON_AND_ORGANIZATION ( #155, #237 ) ;
#47 = EDGE_LOOP ( 'NONE', ( #44, #33, #78, #18 ) ) ;
#48 = VERTEX_POINT ( 'NONE', #198 ) ;
#49 = CARTESIAN_POINT ( 'NONE',  ( 0.000000000000000000, 0.03549999999999993439, 0.000000000000000000 ) ) ;
#50 = CARTESIAN_POINT ( 'NONE',  ( 0.000000000000000000, 0.03549999999999993439, -0.4530000000000000138 ) ) ;
#51 = DIRECTION ( 'NONE',  ( 0.000000000000000000, -1.000000000000000000, 0.000000000000000000 ) ) ;
#52 = SHAPE_DEFINITION_REPRESENTATION ( #208, #212 ) ;
#53 = CYLINDRICAL_SURFACE ( 'NONE', #154, 0.4530000000000000138 ) ;
#54 = DATE_TIME_ROLE ( 'creation_date' ) ;
#55 = CC_DESIGN_DATE_AND_TIME_ASSIGNMENT ( #11, #54, ( #4 ) ) ;
#56 = EDGE_CURVE ( 'NONE', #104, #48, #90, .T. ) ;
#57 = COORDINATED_UNIVERSAL_TIME_OFFSET ( 5, 0, .BEHIND. ) ;
#58 = VECTOR ( 'NONE', #51, 39.37007874015748143 ) ;
#59 = VERTEX_POINT ( 'NONE', #7 ) ;
#60 = VECTOR ( 'NONE', #27, 39.37007874015748143 ) ;
#61 = PERSON_AND_ORGANIZATION ( #155, #237 ) ;
#62 = FACE_OUTER_BOUND ( 'NONE', #75, .T. ) ;
#63 = EDGE_CURVE ( 'NONE', #101, #220, #182, .T. ) ;
#64 = DIRECTION ( 'NONE',  ( 0.000000000000000000, -1.000000000000000000, 0.000000000000000000 ) ) ;
#65 = CARTESIAN_POINT ( 'NONE',  ( 0.000000000000000000, 0.03549999999999993439, -0.2425000000000000211 ) ) ;
#66 = FACE_BOUND ( 'NONE', #188, .T. ) ;
#67 = DIRECTION ( 'NONE',  ( 0.000000000000000000, 0.000000000000000000, 1.000000000000000000 ) ) ;
#68 = DIRECTION ( 'NONE',  ( 0.000000000000000000, -1.000000000000000000, 0.000000000000000000 ) ) ;
#69 = DIRECTION ( 'NONE',  ( 0.000000000000000000, -1.000000000000000000, 0.000000000000000000 ) ) ;
#70 = UNCERTAINTY_MEASURE_WITH_UNIT (LENGTH_MEASURE( 1.000000000000000082E-05 ), #132, 'distance_accuracy_value', 'NONE');
#71 = ORIENTED_EDGE ( 'NONE', *, *, #56, .F. ) ;
#72 = AXIS2_PLACEMENT_3D ( 'NONE', #91, #35, #111 ) ;
#73 = ORIENTED_EDGE ( 'NONE', *, *, #117, .T. ) ;
#74 = LINE ( 'NONE', #129, #58 ) ;
#75 = EDGE_LOOP ( 'NONE', ( #185, #86, #249, #71 ) ) ;
#76 = APPROVAL ( #194, 'UNSPECIFIED' ) ;
#77 = FACE_OUTER_BOUND ( 'NONE', #26, .T. ) ;
#78 = ORIENTED_EDGE ( 'NONE', *, *, #88, .T. ) ;
#79 = CARTESIAN_POINT ( 'NONE',  ( 2.969768487932331731E-17, -0.03550000000000007316, 0.2425000000000000211 ) ) ;
#80 = FACE_OUTER_BOUND ( 'NONE', #159, .T. ) ;
#81 = ORIENTED_EDGE ( 'NONE', *, *, #243, .T. ) ;
#82 = CC_DESIGN_PERSON_AND_ORGANIZATION_ASSIGNMENT ( #2, #37, ( #134 ) ) ;
#83 = CARTESIAN_POINT ( 'NONE',  ( 0.000000000000000000, -0.03550000000000007316, 0.000000000000000000 ) ) ;
#84 = CARTESIAN_POINT ( 'NONE',  ( 0.000000000000000000, 0.03549999999999993439, 0.000000000000000000 ) ) ;
#85 = LINE ( 'NONE', #50, #40 ) ;
#86 = ORIENTED_EDGE ( 'NONE', *, *, #30, .T. ) ;
#87 = CARTESIAN_POINT ( 'NONE',  ( 0.000000000000000000, 0.03549999999999993439, 0.000000000000000000 ) ) ;
#88 = EDGE_CURVE ( 'NONE', #220, #98, #230, .T. ) ;
#89 = LOCAL_TIME ( 10, 36, 24.00000000000000000, #143 ) ;
#90 = CIRCLE ( 'NONE', #251, 0.2425000000000000211 ) ;
#91 = CARTESIAN_POINT ( 'NONE',  ( 0.000000000000000000, 0.03549999999999993439, 0.000000000000000000 ) ) ;
#92 = MECHANICAL_CONTEXT ( 'NONE', #175, 'mechanical' ) ;
#93 = AXIS2_PLACEMENT_3D ( 'NONE', #250, #247, #170 ) ;
#94 = PERSON_AND_ORGANIZATION_ROLE ( 'classification_officer' ) ;
#95 = DATE_AND_TIME ( #252, #97 ) ;
#96 = EDGE_CURVE ( 'NONE', #38, #48, #178, .T. ) ;
#97 = LOCAL_TIME ( 10, 36, 24.00000000000000000, #24 ) ;
#98 = VERTEX_POINT ( 'NONE', #121 ) ;
#99 = CC_DESIGN_SECURITY_CLASSIFICATION ( #19, ( #160 ) ) ;
#100 = EDGE_CURVE ( 'NONE', #98, #220, #110, .T. ) ;
#101 = VERTEX_POINT ( 'NONE', #105 ) ;
#102 = CARTESIAN_POINT ( 'NONE',  ( 0.000000000000000000, -0.03550000000000007316, 0.000000000000000000 ) ) ;
#103 = APPROVAL ( #179, 'UNSPECIFIED' ) ;
#104 = VERTEX_POINT ( 'NONE', #79 ) ;
#105 = CARTESIAN_POINT ( 'NONE',  ( 5.547650000137510070E-17, 0.03549999999999993439, 0.4530000000000000138 ) ) ;
#106 = AXIS2_PLACEMENT_3D ( 'NONE', #49, #29, #189 ) ;
#107 = DIRECTION ( 'NONE',  ( 0.000000000000000000, 0.000000000000000000, 1.000000000000000000 ) ) ;
#108 = APPROVAL_PERSON_ORGANIZATION ( #150, #76, #138 ) ;
#109 = ADVANCED_FACE ( 'NONE', ( #12 ), #53, .T. ) ;
#110 = CIRCLE ( 'NONE', #174, 0.4530000000000000138 ) ;
#111 = DIRECTION ( 'NONE',  ( 0.000000000000000000, 0.000000000000000000, 1.000000000000000000 ) ) ;
#112 = ORIENTED_EDGE ( 'NONE', *, *, #30, .F. ) ;
#113 = VERTEX_POINT ( 'NONE', #13 ) ;
#114 = APPLICATION_PROTOCOL_DEFINITION ( 'international standard', 'config_control_design', 1994, #136 ) ;
#115 = SECURITY_CLASSIFICATION_LEVEL ( 'unclassified' ) ;
#116 = CIRCLE ( 'NONE', #142, 0.2425000000000000211 ) ;
#117 = EDGE_CURVE ( 'NONE', #38, #113, #233, .T. ) ;
#118 = AXIS2_PLACEMENT_3D ( 'NONE', #130, #202, #107 ) ;
#119 = AXIS2_PLACEMENT_3D ( 'NONE', #206, #228, #211 ) ;
#120 = EDGE_CURVE ( 'NONE', #59, #101, #223, .T. ) ;
#121 = CARTESIAN_POINT ( 'NONE',  ( 0.000000000000000000, -0.03550000000000007316, -0.4530000000000000138 ) ) ;
#122 = ADVANCED_FACE ( 'NONE', ( #62 ), #158, .F. ) ;
#123 = CARTESIAN_POINT ( 'NONE',  ( 0.000000000000000000, 0.03549999999999993439, 0.000000000000000000 ) ) ;
#124 = VECTOR ( 'NONE', #64, 39.37007874015748143 ) ;
#125 = EDGE_CURVE ( 'NONE', #101, #59, #216, .T. ) ;
#126 = DIRECTION ( 'NONE',  ( 0.000000000000000000, 0.000000000000000000, 1.000000000000000000 ) ) ;
#127 = CARTESIAN_POINT ( 'NONE',  ( 0.000000000000000000, -0.03550000000000007316, 0.000000000000000000 ) ) ;
#128 = DATE_AND_TIME ( #42, #218 ) ;
#129 = CARTESIAN_POINT ( 'NONE',  ( 2.969768487932331731E-17, 0.03549999999999993439, 0.2425000000000000211 ) ) ;
#130 = CARTESIAN_POINT ( 'NONE',  ( 0.000000000000000000, 0.03549999999999993439, 0.000000000000000000 ) ) ;
#131 = EDGE_CURVE ( 'NONE', #48, #104, #192, .T. ) ;
#132 =( CONVERSION_BASED_UNIT ( 'INCH', #16 ) LENGTH_UNIT ( ) NAMED_UNIT ( #239 ) );
#133 = FACE_OUTER_BOUND ( 'NONE', #234, .T. ) ;
#134 = PRODUCT ( 'GSK-JIS26-T', 'GSK-JIS26-T', '', ( #92 ) ) ;
#135 = CC_DESIGN_PERSON_AND_ORGANIZATION_ASSIGNMENT ( #229, #1, ( #160 ) ) ;
#136 = APPLICATION_CONTEXT ( 'configuration controlled 3d designs of mechanical parts and assemblies' ) ;
#137 = CYLINDRICAL_SURFACE ( 'NONE', #201, 0.4530000000000000138 ) ;
#138 = APPROVAL_ROLE ( '' ) ;
#139 = FACE_OUTER_BOUND ( 'NONE', #43, .T. ) ;
#140 = ORIENTED_EDGE ( 'NONE', *, *, #120, .F. ) ;
#141 =( GEOMETRIC_REPRESENTATION_CONTEXT ( 3 ) GLOBAL_UNCERTAINTY_ASSIGNED_CONTEXT ( ( #70 ) ) GLOBAL_UNIT_ASSIGNED_CONTEXT ( ( #132, #14, #152 ) ) REPRESENTATION_CONTEXT ( 'NONE', 'WORKASPACE' ) );
#142 = AXIS2_PLACEMENT_3D ( 'NONE', #166, #146, #126 ) ;
#143 = COORDINATED_UNIVERSAL_TIME_OFFSET ( 5, 0, .BEHIND. ) ;
#144 = ORIENTED_EDGE ( 'NONE', *, *, #56, .T. ) ;
#145 = AXIS2_PLACEMENT_3D ( 'NONE', #102, #187, #67 ) ;
#146 = DIRECTION ( 'NONE',  ( 0.000000000000000000, 1.000000000000000000, 0.000000000000000000 ) ) ;
#147 = CARTESIAN_POINT ( 'NONE',  ( 0.000000000000000000, -0.03550000000000007316, 0.000000000000000000 ) ) ;
#148 = CARTESIAN_POINT ( 'NONE',  ( 0.000000000000000000, 0.03549999999999993439, 0.000000000000000000 ) ) ;
#149 = DIRECTION ( 'NONE',  ( 0.000000000000000000, 0.000000000000000000, 1.000000000000000000 ) ) ;
#150 = PERSON_AND_ORGANIZATION ( #155, #237 ) ;
#151 = APPROVAL_DATE_TIME ( #95, #103 ) ;
#152 =( NAMED_UNIT ( * ) SI_UNIT ( $, .STERADIAN. ) SOLID_ANGLE_UNIT ( ) );
#153 = CC_DESIGN_DATE_AND_TIME_ASSIGNMENT ( #181, #39, ( #19 ) ) ;
#154 = AXIS2_PLACEMENT_3D ( 'NONE', #123, #242, #10 ) ;
#155 = PERSON ( 'UNSPECIFIED', 'UNSPECIFIED', 'UNSPECIFIED', ('UNSPECIFIED'), ('UNSPECIFIED'), ('UNSPECIFIED') ) ;
#156 = AXIS2_PLACEMENT_3D ( 'NONE', #245, #207, #149 ) ;
#157 = CALENDAR_DATE ( 2025, 27, 8 ) ;
#158 = CYLINDRICAL_SURFACE ( 'NONE', #186, 0.2425000000000000211 ) ;
#159 = EDGE_LOOP ( 'NONE', ( #165, #217 ) ) ;
#160 = PRODUCT_DEFINITION_FORMATION_WITH_SPECIFIED_SOURCE ( 'ANY', '', #134, .NOT_KNOWN. ) ;
#161 = APPROVAL_PERSON_ORGANIZATION ( #61, #169, #231 ) ;
#162 = DIRECTION ( 'NONE',  ( 0.000000000000000000, 0.000000000000000000, 1.000000000000000000 ) ) ;
#163 = CALENDAR_DATE ( 2025, 27, 8 ) ;
#164 = ADVANCED_FACE ( 'NONE', ( #80, #66 ), #226, .T. ) ;
#165 = ORIENTED_EDGE ( 'NONE', *, *, #120, .T. ) ;
#166 = CARTESIAN_POINT ( 'NONE',  ( 0.000000000000000000, 0.03549999999999993439, 0.000000000000000000 ) ) ;
#167 = APPLICATION_PROTOCOL_DEFINITION ( 'international standard', 'config_control_design', 1994, #175 ) ;
#168 = ADVANCED_FACE ( 'NONE', ( #139 ), #36, .F. ) ;
#169 = APPROVAL ( #41, 'UNSPECIFIED' ) ;
#170 = DIRECTION ( 'NONE',  ( 0.000000000000000000, 0.000000000000000000, 1.000000000000000000 ) ) ;
#171 = PERSON_AND_ORGANIZATION ( #155, #237 ) ;
#172 = ORIENTED_EDGE ( 'NONE', *, *, #117, .F. ) ;
#173 = PLANE ( 'NONE',  #93 ) ;
#174 = AXIS2_PLACEMENT_3D ( 'NONE', #147, #240, #221 ) ;
#175 = APPLICATION_CONTEXT ( 'configuration controlled 3d designs of mechanical parts and assemblies' ) ;
#176 = PERSON_AND_ORGANIZATION_ROLE ( 'creator' ) ;
#177 = COORDINATED_UNIVERSAL_TIME_OFFSET ( 5, 0, .BEHIND. ) ;
#178 = LINE ( 'NONE', #241, #60 ) ;
#179 = APPROVAL_STATUS ( 'not_yet_approved' ) ;
#180 = ORIENTED_EDGE ( 'NONE', *, *, #88, .F. ) ;
#181 = DATE_AND_TIME ( #157, #15 ) ;
#182 = LINE ( 'NONE', #45, #124 ) ;
#183 = ORIENTED_EDGE ( 'NONE', *, *, #100, .F. ) ;
#184 = AXIS2_PLACEMENT_3D ( 'NONE', #84, #224, #227 ) ;
#185 = ORIENTED_EDGE ( 'NONE', *, *, #243, .F. ) ;
#186 = AXIS2_PLACEMENT_3D ( 'NONE', #87, #203, #204 ) ;
#187 = DIRECTION ( 'NONE',  ( 0.000000000000000000, 1.000000000000000000, 0.000000000000000000 ) ) ;
#188 = EDGE_LOOP ( 'NONE', ( #172, #112 ) ) ;
#189 = DIRECTION ( 'NONE',  ( 0.000000000000000000, 0.000000000000000000, 1.000000000000000000 ) ) ;
#190 =( LENGTH_UNIT ( ) NAMED_UNIT ( * ) SI_UNIT ( $, .METRE. ) );
#191 = DIRECTION ( 'NONE',  ( 0.000000000000000000, 0.000000000000000000, 1.000000000000000000 ) ) ;
#192 = CIRCLE ( 'NONE', #8, 0.2425000000000000211 ) ;
#193 = CLOSED_SHELL ( 'NONE', ( #168, #109, #164, #225, #200, #122 ) ) ;
#194 = APPROVAL_STATUS ( 'not_yet_approved' ) ;
#195 = CC_DESIGN_PERSON_AND_ORGANIZATION_ASSIGNMENT ( #5, #94, ( #19 ) ) ;
#196 = ORIENTED_EDGE ( 'NONE', *, *, #131, .F. ) ;
#197 = ORIENTED_EDGE ( 'NONE', *, *, #96, .F. ) ;
#198 = CARTESIAN_POINT ( 'NONE',  ( 0.000000000000000000, -0.03550000000000007316, -0.2425000000000000211 ) ) ;
#199 = CC_DESIGN_PERSON_AND_ORGANIZATION_ASSIGNMENT ( #171, #17, ( #160 ) ) ;
#200 = ADVANCED_FACE ( 'NONE', ( #133 ), #137, .T. ) ;
#201 = AXIS2_PLACEMENT_3D ( 'NONE', #148, #68, #34 ) ;
#202 = DIRECTION ( 'NONE',  ( 0.000000000000000000, 1.000000000000000000, 0.000000000000000000 ) ) ;
#203 = DIRECTION ( 'NONE',  ( 0.000000000000000000, -1.000000000000000000, 0.000000000000000000 ) ) ;
#204 = DIRECTION ( 'NONE',  ( 0.000000000000000000, 0.000000000000000000, -1.000000000000000000 ) ) ;
#205 = APPROVAL_DATE_TIME ( #32, #169 ) ;
#206 = CARTESIAN_POINT ( 'NONE',  ( 0.000000000000000000, 0.000000000000000000, 0.000000000000000000 ) ) ;
#207 = DIRECTION ( 'NONE',  ( 0.000000000000000000, 1.000000000000000000, 0.000000000000000000 ) ) ;
#208 = PRODUCT_DEFINITION_SHAPE ( 'NONE', 'NONE',  #4 ) ;
#209 = FACE_BOUND ( 'NONE', #21, .T. ) ;
#210 = APPROVAL_ROLE ( '' ) ;
#211 = DIRECTION ( 'NONE',  ( 1.000000000000000000, 0.000000000000000000, 0.000000000000000000 ) ) ;
#212 = ADVANCED_BREP_SHAPE_REPRESENTATION ( 'GSK-JIS26-T', ( #22, #119 ), #141 ) ;
#213 = COORDINATED_UNIVERSAL_TIME_OFFSET ( 5, 0, .BEHIND. ) ;
#214 = LOCAL_TIME ( 10, 36, 24.00000000000000000, #57 ) ;
#215 = CC_DESIGN_APPROVAL ( #169, ( #19 ) ) ;
#216 = CIRCLE ( 'NONE', #106, 0.4530000000000000138 ) ;
#217 = ORIENTED_EDGE ( 'NONE', *, *, #125, .T. ) ;
#218 = LOCAL_TIME ( 10, 36, 24.00000000000000000, #213 ) ;
#219 = CC_DESIGN_APPROVAL ( #103, ( #4 ) ) ;
#220 = VERTEX_POINT ( 'NONE', #246 ) ;
#221 = DIRECTION ( 'NONE',  ( 0.000000000000000000, 0.000000000000000000, 1.000000000000000000 ) ) ;
#222 = PERSON_AND_ORGANIZATION ( #155, #237 ) ;
#223 = CIRCLE ( 'NONE', #156, 0.4530000000000000138 ) ;
#224 = DIRECTION ( 'NONE',  ( 0.000000000000000000, -1.000000000000000000, 0.000000000000000000 ) ) ;
#225 = ADVANCED_FACE ( 'NONE', ( #77, #209 ), #173, .F. ) ;
#226 = PLANE ( 'NONE',  #72 ) ;
#227 = DIRECTION ( 'NONE',  ( 0.000000000000000000, 0.000000000000000000, -1.000000000000000000 ) ) ;
#228 = DIRECTION ( 'NONE',  ( 0.000000000000000000, 0.000000000000000000, 1.000000000000000000 ) ) ;
#229 = PERSON_AND_ORGANIZATION ( #155, #237 ) ;
#230 = CIRCLE ( 'NONE', #145, 0.4530000000000000138 ) ;
#231 = APPROVAL_ROLE ( '' ) ;
#232 = CALENDAR_DATE ( 2025, 27, 8 ) ;
#233 = CIRCLE ( 'NONE', #118, 0.2425000000000000211 ) ;
#234 = EDGE_LOOP ( 'NONE', ( #20, #140, #25, #244 ) ) ;
#235 = EDGE_CURVE ( 'NONE', #59, #98, #85, .T. ) ;
#236 = PRODUCT_RELATED_PRODUCT_CATEGORY ( 'detail', '', ( #134 ) ) ;
#237 = ORGANIZATION ( 'UNSPECIFIED', 'UNSPECIFIED', '' ) ;
#238 = DIRECTION ( 'NONE',  ( 0.000000000000000000, 1.000000000000000000, 0.000000000000000000 ) ) ;
#239 = DIMENSIONAL_EXPONENTS ( 1.000000000000000000, 0.000000000000000000, 0.000000000000000000, 0.000000000000000000, 0.000000000000000000, 0.000000000000000000, 0.000000000000000000 ) ;
#240 = DIRECTION ( 'NONE',  ( 0.000000000000000000, 1.000000000000000000, 0.000000000000000000 ) ) ;
#241 = CARTESIAN_POINT ( 'NONE',  ( 0.000000000000000000, 0.03549999999999993439, -0.2425000000000000211 ) ) ;
#242 = DIRECTION ( 'NONE',  ( 0.000000000000000000, -1.000000000000000000, 0.000000000000000000 ) ) ;
#243 = EDGE_CURVE ( 'NONE', #113, #104, #74, .T. ) ;
#244 = ORIENTED_EDGE ( 'NONE', *, *, #100, .T. ) ;
#245 = CARTESIAN_POINT ( 'NONE',  ( 0.000000000000000000, 0.03549999999999993439, 0.000000000000000000 ) ) ;
#246 = CARTESIAN_POINT ( 'NONE',  ( 5.547650000137510070E-17, -0.03550000000000007316, 0.4530000000000000138 ) ) ;
#247 = DIRECTION ( 'NONE',  ( 0.000000000000000000, 1.000000000000000000, 0.000000000000000000 ) ) ;
#248 = CC_DESIGN_PERSON_AND_ORGANIZATION_ASSIGNMENT ( #46, #176, ( #4 ) ) ;
#249 = ORIENTED_EDGE ( 'NONE', *, *, #96, .T. ) ;
#250 = CARTESIAN_POINT ( 'NONE',  ( 0.000000000000000000, -0.03550000000000007316, 0.000000000000000000 ) ) ;
#251 = AXIS2_PLACEMENT_3D ( 'NONE', #83, #238, #162 ) ;
#252 = CALENDAR_DATE ( 2025, 27, 8 ) ;
ENDSEC;
END-ISO-10303-21;
