ISO-10303-21;
HEADER;
FILE_DESCRIPTION (( 'STEP AP203' ),
    '1' );
FILE_NAME ('GSK-RU3-T.STEP',
    '2025-08-27T14:45:59',
    ( '' ),
    ( '' ),
    'SwSTEP 2.0',
    'SolidWorks 2018',
    '' );
FILE_SCHEMA (( 'CONFIG_CONTROL_DESIGN' ));
ENDSEC;

DATA;
#1 =( NAMED_UNIT ( * ) PLANE_ANGLE_UNIT ( ) SI_UNIT ( $, .RADIAN. ) );
#2 = EDGE_CURVE ( 'NONE', #142, #189, #237, .T. ) ;
#3 = LINE ( 'NONE', #234, #204 ) ;
#4 = APPLICATION_PROTOCOL_DEFINITION ( 'international standard', 'config_control_design', 1994, #63 ) ;
#5 = SECURITY_CLASSIFICATION_LEVEL ( 'unclassified' ) ;
#6 = DIRECTION ( 'NONE',  ( 0.000000000000000000, 0.000000000000000000, 1.000000000000000000 ) ) ;
#7 = CYLINDRICAL_SURFACE ( 'NONE', #133, 0.2401574803149606196 ) ;
#8 = CC_DESIGN_PERSON_AND_ORGANIZATION_ASSIGNMENT ( #14, #197, ( #146 ) ) ;
#9 = DIRECTION ( 'NONE',  ( 0.000000000000000000, 1.000000000000000000, 0.000000000000000000 ) ) ;
#10 = EDGE_CURVE ( 'NONE', #176, #73, #145, .T. ) ;
#11 = CARTESIAN_POINT ( 'NONE',  ( 2.941080895590099999E-17, 0.03937007874015747977, 0.2401574803149606196 ) ) ;
#12 = LOCAL_TIME ( 10, 45, 59.00000000000000000, #101 ) ;
#13 = VERTEX_POINT ( 'NONE', #126 ) ;
#14 = PERSON_AND_ORGANIZATION ( #37, #116 ) ;
#15 = EDGE_CURVE ( 'NONE', #13, #228, #30, .T. ) ;
#16 = LOCAL_TIME ( 10, 45, 59.00000000000000000, #188 ) ;
#17 = CIRCLE ( 'NONE', #241, 0.3937007874015748254 ) ;
#18 = PERSON_AND_ORGANIZATION_ROLE ( 'design_owner' ) ;
#19 = DIRECTION ( 'NONE',  ( 0.000000000000000000, 0.000000000000000000, 1.000000000000000000 ) ) ;
#20 = CC_DESIGN_APPROVAL ( #157, ( #146 ) ) ;
#21 = DATE_TIME_ROLE ( 'creation_date' ) ;
#22 = APPROVAL_STATUS ( 'not_yet_approved' ) ;
#23 = PRODUCT_DEFINITION ( 'UNKNOWN', '', #146, #168 ) ;
#24 = PERSON_AND_ORGANIZATION ( #37, #116 ) ;
#25 = FACE_BOUND ( 'NONE', #128, .T. ) ;
#26 = DIRECTION ( 'NONE',  ( 0.000000000000000000, 1.000000000000000000, 0.000000000000000000 ) ) ;
#27 = AXIS2_PLACEMENT_3D ( 'NONE', #221, #139, #138 ) ;
#28 = DIRECTION ( 'NONE',  ( 0.000000000000000000, 0.000000000000000000, 1.000000000000000000 ) ) ;
#29 = PERSON_AND_ORGANIZATION ( #37, #116 ) ;
#30 = CIRCLE ( 'NONE', #178, 0.3937007874015748254 ) ;
#31 = PRODUCT_DEFINITION_SHAPE ( 'NONE', 'NONE',  #23 ) ;
#32 = FACE_OUTER_BOUND ( 'NONE', #119, .T. ) ;
#33 = ADVANCED_FACE ( 'NONE', ( #80 ), #7, .F. ) ;
#34 = CYLINDRICAL_SURFACE ( 'NONE', #59, 0.3937007874015748254 ) ;
#35 = EDGE_CURVE ( 'NONE', #195, #245, #36, .T. ) ;
#36 = CIRCLE ( 'NONE', #192, 0.3937007874015748254 ) ;
#37 = PERSON ( 'UNSPECIFIED', 'UNSPECIFIED', 'UNSPECIFIED', ('UNSPECIFIED'), ('UNSPECIFIED'), ('UNSPECIFIED') ) ;
#38 = AXIS2_PLACEMENT_3D ( 'NONE', #220, #201, #175 ) ;
#39 = APPROVAL ( #156, 'UNSPECIFIED' ) ;
#40 = SECURITY_CLASSIFICATION ( '', '', #5 ) ;
#41 = APPROVAL_DATE_TIME ( #236, #157 ) ;
#42 = CLOSED_SHELL ( 'NONE', ( #248, #173, #132, #60, #246, #33 ) ) ;
#43 =( NAMED_UNIT ( * ) SI_UNIT ( $, .STERADIAN. ) SOLID_ANGLE_UNIT ( ) );
#44 = DIRECTION ( 'NONE',  ( 0.000000000000000000, 0.000000000000000000, -1.000000000000000000 ) ) ;
#45 = CARTESIAN_POINT ( 'NONE',  ( 0.000000000000000000, 0.000000000000000000, 0.000000000000000000 ) ) ;
#46 = CYLINDRICAL_SURFACE ( 'NONE', #27, 0.2401574803149606196 ) ;
#47 = ORIENTED_EDGE ( 'NONE', *, *, #250, .F. ) ;
#48 = MECHANICAL_CONTEXT ( 'NONE', #63, 'mechanical' ) ;
#49 = PERSON_AND_ORGANIZATION ( #37, #116 ) ;
#50 = ORIENTED_EDGE ( 'NONE', *, *, #164, .T. ) ;
#51 = DIRECTION ( 'NONE',  ( 0.000000000000000000, 1.000000000000000000, 0.000000000000000000 ) ) ;
#52 = DIRECTION ( 'NONE',  ( 0.000000000000000000, 1.000000000000000000, 0.000000000000000000 ) ) ;
#53 = LINE ( 'NONE', #158, #226 ) ;
#54 = DIRECTION ( 'NONE',  ( 0.000000000000000000, 1.000000000000000000, 0.000000000000000000 ) ) ;
#55 = AXIS2_PLACEMENT_3D ( 'NONE', #69, #51, #125 ) ;
#56 = AXIS2_PLACEMENT_3D ( 'NONE', #208, #9, #149 ) ;
#57 = DATE_AND_TIME ( #144, #12 ) ;
#58 = APPROVAL ( #22, 'UNSPECIFIED' ) ;
#59 = AXIS2_PLACEMENT_3D ( 'NONE', #219, #177, #44 ) ;
#60 = ADVANCED_FACE ( 'NONE', ( #155, #79 ), #94, .F. ) ;
#61 = ORIENTED_EDGE ( 'NONE', *, *, #207, .F. ) ;
#62 = APPROVAL_ROLE ( '' ) ;
#63 = APPLICATION_CONTEXT ( 'configuration controlled 3d designs of mechanical parts and assemblies' ) ;
#64 = LOCAL_TIME ( 10, 45, 59.00000000000000000, #217 ) ;
#65 = PERSON_AND_ORGANIZATION_ROLE ( 'creator' ) ;
#66 = DIRECTION ( 'NONE',  ( -0.000000000000000000, -1.000000000000000000, -0.000000000000000000 ) ) ;
#67 = AXIS2_PLACEMENT_3D ( 'NONE', #223, #184, #6 ) ;
#68 =( GEOMETRIC_REPRESENTATION_CONTEXT ( 3 ) GLOBAL_UNCERTAINTY_ASSIGNED_CONTEXT ( ( #82 ) ) GLOBAL_UNIT_ASSIGNED_CONTEXT ( ( #121, #1, #43 ) ) REPRESENTATION_CONTEXT ( 'NONE', 'WORKASPACE' ) );
#69 = CARTESIAN_POINT ( 'NONE',  ( 0.000000000000000000, 0.03937007874015747977, 0.000000000000000000 ) ) ;
#70 = APPROVAL_PERSON_ORGANIZATION ( #222, #58, #161 ) ;
#71 = ORIENTED_EDGE ( 'NONE', *, *, #89, .T. ) ;
#72 = PRODUCT_RELATED_PRODUCT_CATEGORY ( 'detail', '', ( #249 ) ) ;
#73 = VERTEX_POINT ( 'NONE', #206 ) ;
#74 = DIRECTION ( 'NONE',  ( 0.000000000000000000, 0.000000000000000000, 1.000000000000000000 ) ) ;
#75 = AXIS2_PLACEMENT_3D ( 'NONE', #106, #118, #199 ) ;
#76 = CARTESIAN_POINT ( 'NONE',  ( 0.000000000000000000, 0.03937007874015747977, 0.000000000000000000 ) ) ;
#77 = DIRECTION ( 'NONE',  ( 0.000000000000000000, 0.000000000000000000, 1.000000000000000000 ) ) ;
#78 = CALENDAR_DATE ( 2025, 27, 8 ) ;
#79 = FACE_BOUND ( 'NONE', #181, .T. ) ;
#80 = FACE_OUTER_BOUND ( 'NONE', #171, .T. ) ;
#81 = DIMENSIONAL_EXPONENTS ( 1.000000000000000000, 0.000000000000000000, 0.000000000000000000, 0.000000000000000000, 0.000000000000000000, 0.000000000000000000, 0.000000000000000000 ) ;
#82 = UNCERTAINTY_MEASURE_WITH_UNIT (LENGTH_MEASURE( 1.000000000000000082E-05 ), #121, 'distance_accuracy_value', 'NONE');
#83 = ORIENTED_EDGE ( 'NONE', *, *, #114, .F. ) ;
#84 = CC_DESIGN_APPROVAL ( #58, ( #40 ) ) ;
#85 = MANIFOLD_SOLID_BREP ( 'Boss-Extrude1', #42 ) ;
#86 = CARTESIAN_POINT ( 'NONE',  ( 4.821444091131312140E-17, -0.03937007874015747977, 0.3937007874015748254 ) ) ;
#87 = ORIENTED_EDGE ( 'NONE', *, *, #89, .F. ) ;
#88 = PERSON_AND_ORGANIZATION_ROLE ( 'creator' ) ;
#89 = EDGE_CURVE ( 'NONE', #189, #142, #230, .T. ) ;
#90 = CC_DESIGN_DATE_AND_TIME_ASSIGNMENT ( #57, #21, ( #23 ) ) ;
#91 = COORDINATED_UNIVERSAL_TIME_OFFSET ( 5, 0, .BEHIND. ) ;
#92 = ORIENTED_EDGE ( 'NONE', *, *, #114, .T. ) ;
#93 = ORIENTED_EDGE ( 'NONE', *, *, #122, .T. ) ;
#94 = PLANE ( 'NONE',  #202 ) ;
#95 = DIRECTION ( 'NONE',  ( -0.000000000000000000, -1.000000000000000000, -0.000000000000000000 ) ) ;
#96 = LOCAL_TIME ( 10, 45, 59.00000000000000000, #91 ) ;
#97 = ORIENTED_EDGE ( 'NONE', *, *, #193, .T. ) ;
#98 = CIRCLE ( 'NONE', #75, 0.2401574803149606196 ) ;
#99 = CIRCLE ( 'NONE', #187, 0.3937007874015748254 ) ;
#100 = EDGE_CURVE ( 'NONE', #189, #73, #108, .T. ) ;
#101 = COORDINATED_UNIVERSAL_TIME_OFFSET ( 5, 0, .BEHIND. ) ;
#102 = ORIENTED_EDGE ( 'NONE', *, *, #164, .F. ) ;
#103 = APPROVAL_ROLE ( '' ) ;
#104 = DIRECTION ( 'NONE',  ( 0.000000000000000000, 1.000000000000000000, 0.000000000000000000 ) ) ;
#105 = CARTESIAN_POINT ( 'NONE',  ( 0.000000000000000000, 0.03937007874015747977, -0.2401574803149606196 ) ) ;
#106 = CARTESIAN_POINT ( 'NONE',  ( 0.000000000000000000, -0.03937007874015747977, 0.000000000000000000 ) ) ;
#107 = PERSON_AND_ORGANIZATION ( #37, #116 ) ;
#108 = LINE ( 'NONE', #240, #137 ) ;
#109 = CC_DESIGN_PERSON_AND_ORGANIZATION_ASSIGNMENT ( #134, #65, ( #146 ) ) ;
#110 = DIRECTION ( 'NONE',  ( 0.000000000000000000, 1.000000000000000000, 0.000000000000000000 ) ) ;
#111 = DIRECTION ( 'NONE',  ( 0.000000000000000000, -0.000000000000000000, 1.000000000000000000 ) ) ;
#112 = PERSON_AND_ORGANIZATION ( #37, #116 ) ;
#113 = ORIENTED_EDGE ( 'NONE', *, *, #122, .F. ) ;
#114 = EDGE_CURVE ( 'NONE', #228, #13, #99, .T. ) ;
#115 = DATE_AND_TIME ( #229, #170 ) ;
#116 = ORGANIZATION ( 'UNSPECIFIED', 'UNSPECIFIED', '' ) ;
#117 = EDGE_LOOP ( 'NONE', ( #172, #102 ) ) ;
#118 = DIRECTION ( 'NONE',  ( 0.000000000000000000, 1.000000000000000000, 0.000000000000000000 ) ) ;
#119 = EDGE_LOOP ( 'NONE', ( #124, #92 ) ) ;
#120 = CARTESIAN_POINT ( 'NONE',  ( 4.821444091131312140E-17, 0.03937007874015747977, 0.3937007874015748254 ) ) ;
#121 =( CONVERSION_BASED_UNIT ( 'INCH', #209 ) LENGTH_UNIT ( ) NAMED_UNIT ( #81 ) );
#122 = EDGE_CURVE ( 'NONE', #142, #176, #185, .T. ) ;
#123 = APPLICATION_PROTOCOL_DEFINITION ( 'international standard', 'config_control_design', 1994, #198 ) ;
#124 = ORIENTED_EDGE ( 'NONE', *, *, #15, .T. ) ;
#125 = DIRECTION ( 'NONE',  ( 0.000000000000000000, 0.000000000000000000, 1.000000000000000000 ) ) ;
#126 = CARTESIAN_POINT ( 'NONE',  ( 0.000000000000000000, 0.03937007874015747977, -0.3937007874015748254 ) ) ;
#127 = ADVANCED_BREP_SHAPE_REPRESENTATION ( 'GSK-RU3-T', ( #85, #143 ), #68 ) ;
#128 = EDGE_LOOP ( 'NONE', ( #87, #131 ) ) ;
#129 = CARTESIAN_POINT ( 'NONE',  ( 0.000000000000000000, -0.03937007874015747977, 0.000000000000000000 ) ) ;
#130 = EDGE_LOOP ( 'NONE', ( #83, #97, #50, #61 ) ) ;
#131 = ORIENTED_EDGE ( 'NONE', *, *, #2, .F. ) ;
#132 = ADVANCED_FACE ( 'NONE', ( #32, #25 ), #147, .T. ) ;
#133 = AXIS2_PLACEMENT_3D ( 'NONE', #76, #95, #167 ) ;
#134 = PERSON_AND_ORGANIZATION ( #37, #116 ) ;
#135 = ORIENTED_EDGE ( 'NONE', *, *, #2, .T. ) ;
#136 = CC_DESIGN_SECURITY_CLASSIFICATION ( #40, ( #146 ) ) ;
#137 = VECTOR ( 'NONE', #225, 39.37007874015748143 ) ;
#138 = DIRECTION ( 'NONE',  ( 0.000000000000000000, 0.000000000000000000, -1.000000000000000000 ) ) ;
#139 = DIRECTION ( 'NONE',  ( -0.000000000000000000, -1.000000000000000000, -0.000000000000000000 ) ) ;
#140 = DATE_AND_TIME ( #78, #96 ) ;
#141 = PERSON_AND_ORGANIZATION_ROLE ( 'classification_officer' ) ;
#142 = VERTEX_POINT ( 'NONE', #211 ) ;
#143 = AXIS2_PLACEMENT_3D ( 'NONE', #45, #231, #233 ) ;
#144 = CALENDAR_DATE ( 2025, 27, 8 ) ;
#145 = CIRCLE ( 'NONE', #67, 0.2401574803149606196 ) ;
#146 = PRODUCT_DEFINITION_FORMATION_WITH_SPECIFIED_SOURCE ( 'ANY', '', #249, .NOT_KNOWN. ) ;
#147 = PLANE ( 'NONE',  #56 ) ;
#148 = AXIS2_PLACEMENT_3D ( 'NONE', #186, #26, #74 ) ;
#149 = DIRECTION ( 'NONE',  ( 0.000000000000000000, -0.000000000000000000, 1.000000000000000000 ) ) ;
#150 = APPROVAL_DATE_TIME ( #140, #39 ) ;
#151 = CARTESIAN_POINT ( 'NONE',  ( 0.000000000000000000, 0.03937007874015747977, 0.000000000000000000 ) ) ;
#152 = FACE_OUTER_BOUND ( 'NONE', #163, .T. ) ;
#153 = ORIENTED_EDGE ( 'NONE', *, *, #100, .F. ) ;
#154 = APPROVAL_DATE_TIME ( #212, #58 ) ;
#155 = FACE_OUTER_BOUND ( 'NONE', #117, .T. ) ;
#156 = APPROVAL_STATUS ( 'not_yet_approved' ) ;
#157 = APPROVAL ( #159, 'UNSPECIFIED' ) ;
#158 = CARTESIAN_POINT ( 'NONE',  ( 0.000000000000000000, 0.03937007874015747977, -0.3937007874015748254 ) ) ;
#159 = APPROVAL_STATUS ( 'not_yet_approved' ) ;
#160 = CARTESIAN_POINT ( 'NONE',  ( 0.000000000000000000, -0.03937007874015747977, -0.3937007874015748254 ) ) ;
#161 = APPROVAL_ROLE ( '' ) ;
#162 = CALENDAR_DATE ( 2025, 27, 8 ) ;
#163 = EDGE_LOOP ( 'NONE', ( #71, #93, #47, #153 ) ) ;
#164 = EDGE_CURVE ( 'NONE', #245, #195, #17, .T. ) ;
#165 = COORDINATED_UNIVERSAL_TIME_OFFSET ( 5, 0, .BEHIND. ) ;
#166 = DIRECTION ( 'NONE',  ( 0.000000000000000000, 1.000000000000000000, 0.000000000000000000 ) ) ;
#167 = DIRECTION ( 'NONE',  ( 0.000000000000000000, 0.000000000000000000, -1.000000000000000000 ) ) ;
#168 = DESIGN_CONTEXT ( 'detailed design', #198, 'design' ) ;
#169 = DIRECTION ( 'NONE',  ( -0.000000000000000000, -1.000000000000000000, -0.000000000000000000 ) ) ;
#170 = LOCAL_TIME ( 10, 45, 59.00000000000000000, #165 ) ;
#171 = EDGE_LOOP ( 'NONE', ( #113, #135, #244, #213 ) ) ;
#172 = ORIENTED_EDGE ( 'NONE', *, *, #35, .F. ) ;
#173 = ADVANCED_FACE ( 'NONE', ( #174 ), #247, .T. ) ;
#174 = FACE_OUTER_BOUND ( 'NONE', #130, .T. ) ;
#175 = DIRECTION ( 'NONE',  ( 0.000000000000000000, 0.000000000000000000, -1.000000000000000000 ) ) ;
#176 = VERTEX_POINT ( 'NONE', #179 ) ;
#177 = DIRECTION ( 'NONE',  ( -0.000000000000000000, -1.000000000000000000, -0.000000000000000000 ) ) ;
#178 = AXIS2_PLACEMENT_3D ( 'NONE', #210, #166, #28 ) ;
#179 = CARTESIAN_POINT ( 'NONE',  ( 2.941080895590099999E-17, -0.03937007874015747977, 0.2401574803149606196 ) ) ;
#180 = DIRECTION ( 'NONE',  ( -0.000000000000000000, -1.000000000000000000, -0.000000000000000000 ) ) ;
#181 = EDGE_LOOP ( 'NONE', ( #239, #196 ) ) ;
#182 = CC_DESIGN_PERSON_AND_ORGANIZATION_ASSIGNMENT ( #49, #88, ( #23 ) ) ;
#183 = CC_DESIGN_DATE_AND_TIME_ASSIGNMENT ( #115, #252, ( #40 ) ) ;
#184 = DIRECTION ( 'NONE',  ( 0.000000000000000000, 1.000000000000000000, 0.000000000000000000 ) ) ;
#185 = LINE ( 'NONE', #11, #227 ) ;
#186 = CARTESIAN_POINT ( 'NONE',  ( 0.000000000000000000, 0.03937007874015747977, 0.000000000000000000 ) ) ;
#187 = AXIS2_PLACEMENT_3D ( 'NONE', #151, #110, #77 ) ;
#188 = COORDINATED_UNIVERSAL_TIME_OFFSET ( 5, 0, .BEHIND. ) ;
#189 = VERTEX_POINT ( 'NONE', #105 ) ;
#190 = CARTESIAN_POINT ( 'NONE',  ( 0.000000000000000000, -0.03937007874015747977, 0.000000000000000000 ) ) ;
#191 = ORIENTED_EDGE ( 'NONE', *, *, #193, .F. ) ;
#192 = AXIS2_PLACEMENT_3D ( 'NONE', #129, #52, #242 ) ;
#193 = EDGE_CURVE ( 'NONE', #228, #245, #3, .T. ) ;
#194 = CALENDAR_DATE ( 2025, 27, 8 ) ;
#195 = VERTEX_POINT ( 'NONE', #160 ) ;
#196 = ORIENTED_EDGE ( 'NONE', *, *, #10, .T. ) ;
#197 = PERSON_AND_ORGANIZATION_ROLE ( 'design_supplier' ) ;
#198 = APPLICATION_CONTEXT ( 'configuration controlled 3d designs of mechanical parts and assemblies' ) ;
#199 = DIRECTION ( 'NONE',  ( 0.000000000000000000, 0.000000000000000000, 1.000000000000000000 ) ) ;
#200 = APPROVAL_PERSON_ORGANIZATION ( #107, #39, #62 ) ;
#201 = DIRECTION ( 'NONE',  ( -0.000000000000000000, -1.000000000000000000, -0.000000000000000000 ) ) ;
#202 = AXIS2_PLACEMENT_3D ( 'NONE', #190, #54, #111 ) ;
#203 = CARTESIAN_POINT ( 'NONE',  ( 0.000000000000000000, -0.03937007874015747977, 0.000000000000000000 ) ) ;
#204 = VECTOR ( 'NONE', #66, 39.37007874015748143 ) ;
#205 = EDGE_LOOP ( 'NONE', ( #191, #232, #218, #224 ) ) ;
#206 = CARTESIAN_POINT ( 'NONE',  ( 0.000000000000000000, -0.03937007874015747977, -0.2401574803149606196 ) ) ;
#207 = EDGE_CURVE ( 'NONE', #13, #195, #53, .T. ) ;
#208 = CARTESIAN_POINT ( 'NONE',  ( 0.000000000000000000, 0.03937007874015747977, 0.000000000000000000 ) ) ;
#209 = LENGTH_MEASURE_WITH_UNIT ( LENGTH_MEASURE( 0.02539999999999999897 ), #235 );
#210 = CARTESIAN_POINT ( 'NONE',  ( 0.000000000000000000, 0.03937007874015747977, 0.000000000000000000 ) ) ;
#211 = CARTESIAN_POINT ( 'NONE',  ( 2.941080895590099999E-17, 0.03937007874015747977, 0.2401574803149606196 ) ) ;
#212 = DATE_AND_TIME ( #162, #64 ) ;
#213 = ORIENTED_EDGE ( 'NONE', *, *, #10, .F. ) ;
#214 = CC_DESIGN_PERSON_AND_ORGANIZATION_ASSIGNMENT ( #29, #141, ( #40 ) ) ;
#215 = SHAPE_DEFINITION_REPRESENTATION ( #31, #127 ) ;
#216 = CC_DESIGN_PERSON_AND_ORGANIZATION_ASSIGNMENT ( #24, #18, ( #249 ) ) ;
#217 = COORDINATED_UNIVERSAL_TIME_OFFSET ( 5, 0, .BEHIND. ) ;
#218 = ORIENTED_EDGE ( 'NONE', *, *, #207, .T. ) ;
#219 = CARTESIAN_POINT ( 'NONE',  ( 0.000000000000000000, 0.03937007874015747977, 0.000000000000000000 ) ) ;
#220 = CARTESIAN_POINT ( 'NONE',  ( 0.000000000000000000, 0.03937007874015747977, 0.000000000000000000 ) ) ;
#221 = CARTESIAN_POINT ( 'NONE',  ( 0.000000000000000000, 0.03937007874015747977, 0.000000000000000000 ) ) ;
#222 = PERSON_AND_ORGANIZATION ( #37, #116 ) ;
#223 = CARTESIAN_POINT ( 'NONE',  ( 0.000000000000000000, -0.03937007874015747977, 0.000000000000000000 ) ) ;
#224 = ORIENTED_EDGE ( 'NONE', *, *, #35, .T. ) ;
#225 = DIRECTION ( 'NONE',  ( -0.000000000000000000, -1.000000000000000000, -0.000000000000000000 ) ) ;
#226 = VECTOR ( 'NONE', #180, 39.37007874015748143 ) ;
#227 = VECTOR ( 'NONE', #169, 39.37007874015748143 ) ;
#228 = VERTEX_POINT ( 'NONE', #120 ) ;
#229 = CALENDAR_DATE ( 2025, 27, 8 ) ;
#230 = CIRCLE ( 'NONE', #148, 0.2401574803149606196 ) ;
#231 = DIRECTION ( 'NONE',  ( 0.000000000000000000, 0.000000000000000000, 1.000000000000000000 ) ) ;
#232 = ORIENTED_EDGE ( 'NONE', *, *, #15, .F. ) ;
#233 = DIRECTION ( 'NONE',  ( 1.000000000000000000, 0.000000000000000000, 0.000000000000000000 ) ) ;
#234 = CARTESIAN_POINT ( 'NONE',  ( 4.821444091131312140E-17, 0.03937007874015747977, 0.3937007874015748254 ) ) ;
#235 =( LENGTH_UNIT ( ) NAMED_UNIT ( * ) SI_UNIT ( $, .METRE. ) );
#236 = DATE_AND_TIME ( #194, #16 ) ;
#237 = CIRCLE ( 'NONE', #55, 0.2401574803149606196 ) ;
#238 = CC_DESIGN_APPROVAL ( #39, ( #23 ) ) ;
#239 = ORIENTED_EDGE ( 'NONE', *, *, #250, .T. ) ;
#240 = CARTESIAN_POINT ( 'NONE',  ( 0.000000000000000000, 0.03937007874015747977, -0.2401574803149606196 ) ) ;
#241 = AXIS2_PLACEMENT_3D ( 'NONE', #203, #104, #19 ) ;
#242 = DIRECTION ( 'NONE',  ( 0.000000000000000000, 0.000000000000000000, 1.000000000000000000 ) ) ;
#243 = APPROVAL_PERSON_ORGANIZATION ( #112, #157, #103 ) ;
#244 = ORIENTED_EDGE ( 'NONE', *, *, #100, .T. ) ;
#245 = VERTEX_POINT ( 'NONE', #86 ) ;
#246 = ADVANCED_FACE ( 'NONE', ( #251 ), #34, .T. ) ;
#247 = CYLINDRICAL_SURFACE ( 'NONE', #38, 0.3937007874015748254 ) ;
#248 = ADVANCED_FACE ( 'NONE', ( #152 ), #46, .F. ) ;
#249 = PRODUCT ( 'GSK-RU3-T', 'GSK-RU3-T', '', ( #48 ) ) ;
#250 = EDGE_CURVE ( 'NONE', #73, #176, #98, .T. ) ;
#251 = FACE_OUTER_BOUND ( 'NONE', #205, .T. ) ;
#252 = DATE_TIME_ROLE ( 'classification_date' ) ;
ENDSEC;
END-ISO-10303-21;
