ISO-10303-21;
HEADER;
FILE_DESCRIPTION (( 'STEP AP203' ),
    '1' );
FILE_NAME ('GSK-TIPOC-K.STEP',
    '2025-08-27T15:00:26',
    ( '' ),
    ( '' ),
    'SwSTEP 2.0',
    'SolidWorks 2018',
    '' );
FILE_SCHEMA (( 'CONFIG_CONTROL_DESIGN' ));
ENDSEC;

DATA;
#1 = VERTEX_POINT ( 'NONE', #5 ) ;
#2 = DIRECTION ( 'NONE',  ( -1.000000000000000000, -0.000000000000000000, -0.000000000000000000 ) ) ;
#3 = DATE_AND_TIME ( #15, #231 ) ;
#4 = CC_DESIGN_SECURITY_CLASSIFICATION ( #243, ( #131 ) ) ;
#5 = CARTESIAN_POINT ( 'NONE',  ( 0.000000000000000000, 3.018754359898225751E-17, -0.2464999999999999969 ) ) ;
#6 = DIRECTION ( 'NONE',  ( -1.000000000000000000, -0.000000000000000000, -0.000000000000000000 ) ) ;
#7 = EDGE_CURVE ( 'NONE', #53, #234, #100, .T. ) ;
#8 = DIRECTION ( 'NONE',  ( -1.000000000000000000, -0.000000000000000000, -0.000000000000000000 ) ) ;
#9 = CARTESIAN_POINT ( 'NONE',  ( -1.516480271171051896E-32, 0.3779527559055118058, 0.000000000000000000 ) ) ;
#10 = ORIENTED_EDGE ( 'NONE', *, *, #202, .F. ) ;
#11 = CARTESIAN_POINT ( 'NONE',  ( 0.07874015748031495954, 0.000000000000000000, 0.000000000000000000 ) ) ;
#12 = DIRECTION ( 'NONE',  ( -1.000000000000000000, -0.000000000000000000, -0.000000000000000000 ) ) ;
#13 = EDGE_CURVE ( 'NONE', #175, #223, #183, .T. ) ;
#14 = PLANE ( 'NONE',  #210 ) ;
#15 = CALENDAR_DATE ( 2025, 27, 8 ) ;
#16 = CLOSED_SHELL ( 'NONE', ( #32, #142, #218, #69, #162, #104 ) ) ;
#17 =( NAMED_UNIT ( * ) SI_UNIT ( $, .STERADIAN. ) SOLID_ANGLE_UNIT ( ) );
#18 = ADVANCED_BREP_SHAPE_REPRESENTATION ( 'GSK-TIPOC-K', ( #64, #172 ), #148 ) ;
#19 = APPLICATION_PROTOCOL_DEFINITION ( 'international standard', 'config_control_design', 1994, #38 ) ;
#20 = PERSON_AND_ORGANIZATION_ROLE ( 'creator' ) ;
#21 = SHAPE_DEFINITION_REPRESENTATION ( #113, #18 ) ;
#22 = ORIENTED_EDGE ( 'NONE', *, *, #123, .F. ) ;
#23 = EDGE_CURVE ( 'NONE', #94, #67, #146, .T. ) ;
#24 = PERSON_AND_ORGANIZATION ( #90, #59 ) ;
#25 = AXIS2_PLACEMENT_3D ( 'NONE', #230, #232, #29 ) ;
#26 = CALENDAR_DATE ( 2025, 27, 8 ) ;
#27 = ORIENTED_EDGE ( 'NONE', *, *, #102, .F. ) ;
#28 = FACE_OUTER_BOUND ( 'NONE', #213, .T. ) ;
#29 = DIRECTION ( 'NONE',  ( 0.000000000000000000, 0.000000000000000000, 1.000000000000000000 ) ) ;
#30 = PRODUCT_DEFINITION ( 'UNKNOWN', '', #131, #115 ) ;
#31 = DIRECTION ( 'NONE',  ( 0.000000000000000000, 0.000000000000000000, 1.000000000000000000 ) ) ;
#32 = ADVANCED_FACE ( 'NONE', ( #191 ), #56, .T. ) ;
#33 =( NAMED_UNIT ( * ) PLANE_ANGLE_UNIT ( ) SI_UNIT ( $, .RADIAN. ) );
#34 = DATE_AND_TIME ( #173, #107 ) ;
#35 = PERSON_AND_ORGANIZATION_ROLE ( 'creator' ) ;
#36 = PRODUCT ( 'GSK-TIPOC-K', 'GSK-TIPOC-K', '', ( #199 ) ) ;
#37 = VECTOR ( 'NONE', #42, 39.37007874015748143 ) ;
#38 = APPLICATION_CONTEXT ( 'configuration controlled 3d designs of mechanical parts and assemblies' ) ;
#39 = PERSON_AND_ORGANIZATION ( #90, #59 ) ;
#40 = CYLINDRICAL_SURFACE ( 'NONE', #188, 0.2464999999999999969 ) ;
#41 = EDGE_LOOP ( 'NONE', ( #97, #239 ) ) ;
#42 = DIRECTION ( 'NONE',  ( -1.000000000000000000, -0.000000000000000000, -0.000000000000000000 ) ) ;
#43 = PERSON_AND_ORGANIZATION ( #90, #59 ) ;
#44 = CARTESIAN_POINT ( 'NONE',  ( 0.000000000000000000, 0.000000000000000000, 0.000000000000000000 ) ) ;
#45 = DIRECTION ( 'NONE',  ( 0.000000000000000000, 0.000000000000000000, 1.000000000000000000 ) ) ;
#46 = CARTESIAN_POINT ( 'NONE',  ( 0.07874015748031495954, 0.000000000000000000, 0.000000000000000000 ) ) ;
#47 = APPROVAL_DATE_TIME ( #165, #92 ) ;
#48 = EDGE_LOOP ( 'NONE', ( #247, #149, #185, #127 ) ) ;
#49 = DIRECTION ( 'NONE',  ( -1.000000000000000000, -0.000000000000000000, -0.000000000000000000 ) ) ;
#50 = DIRECTION ( 'NONE',  ( 0.000000000000000000, 0.000000000000000000, 1.000000000000000000 ) ) ;
#51 = PERSON_AND_ORGANIZATION_ROLE ( 'design_owner' ) ;
#52 = LOCAL_TIME ( 11, 0, 26.00000000000000000, #96 ) ;
#53 = VERTEX_POINT ( 'NONE', #80 ) ;
#54 = APPROVAL_STATUS ( 'not_yet_approved' ) ;
#55 = APPLICATION_PROTOCOL_DEFINITION ( 'international standard', 'config_control_design', 1994, #147 ) ;
#56 = CYLINDRICAL_SURFACE ( 'NONE', #171, 0.3779527559055118613 ) ;
#57 = APPROVAL_ROLE ( '' ) ;
#58 = ORIENTED_EDGE ( 'NONE', *, *, #13, .T. ) ;
#59 = ORGANIZATION ( 'UNSPECIFIED', 'UNSPECIFIED', '' ) ;
#60 = EDGE_LOOP ( 'NONE', ( #135, #83 ) ) ;
#61 = DIRECTION ( 'NONE',  ( 0.000000000000000000, 0.000000000000000000, 1.000000000000000000 ) ) ;
#62 = LINE ( 'NONE', #189, #70 ) ;
#63 = CARTESIAN_POINT ( 'NONE',  ( 0.000000000000000000, 0.000000000000000000, 0.3779527559055118613 ) ) ;
#64 = MANIFOLD_SOLID_BREP ( 'Revolve1', #16 ) ;
#65 = FACE_OUTER_BOUND ( 'NONE', #41, .T. ) ;
#66 = CARTESIAN_POINT ( 'NONE',  ( -3.032960542342103792E-32, 0.000000000000000000, 0.000000000000000000 ) ) ;
#67 = VERTEX_POINT ( 'NONE', #207 ) ;
#68 = DIRECTION ( 'NONE',  ( -0.000000000000000000, 0.000000000000000000, 1.000000000000000000 ) ) ;
#69 = ADVANCED_FACE ( 'NONE', ( #140 ), #40, .F. ) ;
#70 = VECTOR ( 'NONE', #118, 39.37007874015748143 ) ;
#71 = APPROVAL_ROLE ( '' ) ;
#72 = APPROVAL_PERSON_ORGANIZATION ( #121, #95, #57 ) ;
#73 = EDGE_LOOP ( 'NONE', ( #133, #194 ) ) ;
#74 = CYLINDRICAL_SURFACE ( 'NONE', #215, 0.2464999999999999969 ) ;
#75 = APPROVAL_DATE_TIME ( #3, #204 ) ;
#76 = CC_DESIGN_DATE_AND_TIME_ASSIGNMENT ( #190, #87, ( #243 ) ) ;
#77 = EDGE_CURVE ( 'NONE', #223, #234, #132, .T. ) ;
#78 = CIRCLE ( 'NONE', #150, 0.2464999999999999969 ) ;
#79 = CARTESIAN_POINT ( 'NONE',  ( -3.032960542342103792E-32, 0.000000000000000000, 0.000000000000000000 ) ) ;
#80 = CARTESIAN_POINT ( 'NONE',  ( 0.07874015748031495954, 4.628586327486059802E-17, -0.3779527559055118613 ) ) ;
#81 = DIRECTION ( 'NONE',  ( 0.000000000000000000, 0.000000000000000000, 1.000000000000000000 ) ) ;
#82 = DIRECTION ( 'NONE',  ( -1.000000000000000000, -0.000000000000000000, -0.000000000000000000 ) ) ;
#83 = ORIENTED_EDGE ( 'NONE', *, *, #23, .T. ) ;
#84 = CC_DESIGN_APPROVAL ( #92, ( #243 ) ) ;
#85 = APPROVAL_PERSON_ORGANIZATION ( #43, #92, #181 ) ;
#86 = EDGE_LOOP ( 'NONE', ( #170, #155, #58, #22 ) ) ;
#87 = DATE_TIME_ROLE ( 'classification_date' ) ;
#88 = EDGE_CURVE ( 'NONE', #67, #198, #62, .T. ) ;
#89 = ORIENTED_EDGE ( 'NONE', *, *, #93, .F. ) ;
#90 = PERSON ( 'UNSPECIFIED', 'UNSPECIFIED', 'UNSPECIFIED', ('UNSPECIFIED'), ('UNSPECIFIED'), ('UNSPECIFIED') ) ;
#91 = COORDINATED_UNIVERSAL_TIME_OFFSET ( 5, 0, .BEHIND. ) ;
#92 = APPROVAL ( #54, 'UNSPECIFIED' ) ;
#93 = EDGE_CURVE ( 'NONE', #94, #1, #179, .T. ) ;
#94 = VERTEX_POINT ( 'NONE', #138 ) ;
#95 = APPROVAL ( #245, 'UNSPECIFIED' ) ;
#96 = COORDINATED_UNIVERSAL_TIME_OFFSET ( 5, 0, .BEHIND. ) ;
#97 = ORIENTED_EDGE ( 'NONE', *, *, #77, .T. ) ;
#98 = DIRECTION ( 'NONE',  ( 0.000000000000000000, 0.000000000000000000, 1.000000000000000000 ) ) ;
#99 = PRODUCT_RELATED_PRODUCT_CATEGORY ( 'detail', '', ( #36 ) ) ;
#100 = LINE ( 'NONE', #158, #37 ) ;
#101 = DIRECTION ( 'NONE',  ( -1.000000000000000000, -0.000000000000000000, -0.000000000000000000 ) ) ;
#102 = EDGE_CURVE ( 'NONE', #53, #175, #130, .T. ) ;
#103 = CARTESIAN_POINT ( 'NONE',  ( -3.032960542342103792E-32, 0.000000000000000000, 0.3779527559055118058 ) ) ;
#104 = ADVANCED_FACE ( 'NONE', ( #111 ), #145, .T. ) ;
#105 = CARTESIAN_POINT ( 'NONE',  ( 0.000000000000000000, 0.000000000000000000, 0.000000000000000000 ) ) ;
#106 = DIMENSIONAL_EXPONENTS ( 1.000000000000000000, 0.000000000000000000, 0.000000000000000000, 0.000000000000000000, 0.000000000000000000, 0.000000000000000000, 0.000000000000000000 ) ;
#107 = LOCAL_TIME ( 11, 0, 26.00000000000000000, #91 ) ;
#108 = ORIENTED_EDGE ( 'NONE', *, *, #7, .T. ) ;
#109 = APPROVAL_STATUS ( 'not_yet_approved' ) ;
#110 = AXIS2_PLACEMENT_3D ( 'NONE', #9, #236, #216 ) ;
#111 = FACE_OUTER_BOUND ( 'NONE', #86, .T. ) ;
#112 = EDGE_LOOP ( 'NONE', ( #89, #10, #252, #117 ) ) ;
#113 = PRODUCT_DEFINITION_SHAPE ( 'NONE', 'NONE',  #30 ) ;
#114 = FACE_BOUND ( 'NONE', #73, .T. ) ;
#115 = DESIGN_CONTEXT ( 'detailed design', #147, 'design' ) ;
#116 = FACE_BOUND ( 'NONE', #60, .T. ) ;
#117 = ORIENTED_EDGE ( 'NONE', *, *, #186, .T. ) ;
#118 = DIRECTION ( 'NONE',  ( -1.000000000000000000, -0.000000000000000000, -0.000000000000000000 ) ) ;
#119 = CC_DESIGN_APPROVAL ( #204, ( #30 ) ) ;
#120 = DIRECTION ( 'NONE',  ( 0.000000000000000000, 0.000000000000000000, 1.000000000000000000 ) ) ;
#121 = PERSON_AND_ORGANIZATION ( #90, #59 ) ;
#122 = DIRECTION ( 'NONE',  ( 0.000000000000000000, 0.000000000000000000, 1.000000000000000000 ) ) ;
#123 = EDGE_CURVE ( 'NONE', #234, #223, #126, .T. ) ;
#124 = DIRECTION ( 'NONE',  ( 0.000000000000000000, 0.000000000000000000, 1.000000000000000000 ) ) ;
#125 = CARTESIAN_POINT ( 'NONE',  ( 0.000000000000000000, 0.000000000000000000, 0.000000000000000000 ) ) ;
#126 = CIRCLE ( 'NONE', #237, 0.3779527559055118058 ) ;
#127 = ORIENTED_EDGE ( 'NONE', *, *, #88, .F. ) ;
#128 = AXIS2_PLACEMENT_3D ( 'NONE', #180, #101, #137 ) ;
#129 = LOCAL_TIME ( 11, 0, 26.00000000000000000, #250 ) ;
#130 = CIRCLE ( 'NONE', #224, 0.3779527559055118613 ) ;
#131 = PRODUCT_DEFINITION_FORMATION_WITH_SPECIFIED_SOURCE ( 'ANY', '', #36, .NOT_KNOWN. ) ;
#132 = CIRCLE ( 'NONE', #248, 0.3779527559055118058 ) ;
#133 = ORIENTED_EDGE ( 'NONE', *, *, #186, .F. ) ;
#134 = APPROVAL_DATE_TIME ( #225, #95 ) ;
#135 = ORIENTED_EDGE ( 'NONE', *, *, #202, .T. ) ;
#136 = CARTESIAN_POINT ( 'NONE',  ( 0.000000000000000000, 3.018754359898225751E-17, -0.2464999999999999969 ) ) ;
#137 = DIRECTION ( 'NONE',  ( 0.000000000000000000, 0.000000000000000000, 1.000000000000000000 ) ) ;
#138 = CARTESIAN_POINT ( 'NONE',  ( 0.07874015748031495954, 3.018754359898225751E-17, -0.2464999999999999969 ) ) ;
#139 = CARTESIAN_POINT ( 'NONE',  ( 0.07874015748031495954, 0.000000000000000000, 0.000000000000000000 ) ) ;
#140 = FACE_OUTER_BOUND ( 'NONE', #112, .T. ) ;
#141 =( CONVERSION_BASED_UNIT ( 'INCH', #217 ) LENGTH_UNIT ( ) NAMED_UNIT ( #106 ) );
#142 = ADVANCED_FACE ( 'NONE', ( #244 ), #74, .F. ) ;
#143 = DIRECTION ( 'NONE',  ( -1.000000000000000000, -0.000000000000000000, -0.000000000000000000 ) ) ;
#144 = DIRECTION ( 'NONE',  ( 1.000000000000000000, 0.000000000000000000, 0.000000000000000000 ) ) ;
#145 = CYLINDRICAL_SURFACE ( 'NONE', #128, 0.3779527559055118613 ) ;
#146 = CIRCLE ( 'NONE', #25, 0.2464999999999999969 ) ;
#147 = APPLICATION_CONTEXT ( 'configuration controlled 3d designs of mechanical parts and assemblies' ) ;
#148 =( GEOMETRIC_REPRESENTATION_CONTEXT ( 3 ) GLOBAL_UNCERTAINTY_ASSIGNED_CONTEXT ( ( #221 ) ) GLOBAL_UNIT_ASSIGNED_CONTEXT ( ( #141, #33, #17 ) ) REPRESENTATION_CONTEXT ( 'NONE', 'WORKASPACE' ) );
#149 = ORIENTED_EDGE ( 'NONE', *, *, #93, .T. ) ;
#150 = AXIS2_PLACEMENT_3D ( 'NONE', #125, #12, #45 ) ;
#151 = CALENDAR_DATE ( 2025, 27, 8 ) ;
#152 = PERSON_AND_ORGANIZATION ( #90, #59 ) ;
#153 = ORIENTED_EDGE ( 'NONE', *, *, #13, .F. ) ;
#154 = CC_DESIGN_PERSON_AND_ORGANIZATION_ASSIGNMENT ( #152, #242, ( #243 ) ) ;
#155 = ORIENTED_EDGE ( 'NONE', *, *, #102, .T. ) ;
#156 = COORDINATED_UNIVERSAL_TIME_OFFSET ( 5, 0, .BEHIND. ) ;
#157 = ORIENTED_EDGE ( 'NONE', *, *, #227, .F. ) ;
#158 = CARTESIAN_POINT ( 'NONE',  ( 0.000000000000000000, 4.628586327486059802E-17, -0.3779527559055118613 ) ) ;
#159 = CC_DESIGN_PERSON_AND_ORGANIZATION_ASSIGNMENT ( #24, #51, ( #36 ) ) ;
#160 = CIRCLE ( 'NONE', #168, 0.3779527559055118613 ) ;
#161 = CARTESIAN_POINT ( 'NONE',  ( 0.07874015748031495954, 0.2464999999999999969, 0.000000000000000000 ) ) ;
#162 = ADVANCED_FACE ( 'NONE', ( #28, #116 ), #14, .F. ) ;
#163 = PLANE ( 'NONE',  #110 ) ;
#164 = CARTESIAN_POINT ( 'NONE',  ( 0.000000000000000000, 0.000000000000000000, 0.000000000000000000 ) ) ;
#165 = DATE_AND_TIME ( #151, #129 ) ;
#166 = CARTESIAN_POINT ( 'NONE',  ( 0.000000000000000000, 0.000000000000000000, 0.2464999999999999969 ) ) ;
#167 = PERSON_AND_ORGANIZATION ( #90, #59 ) ;
#168 = AXIS2_PLACEMENT_3D ( 'NONE', #11, #49, #178 ) ;
#169 = PERSON_AND_ORGANIZATION_ROLE ( 'design_supplier' ) ;
#170 = ORIENTED_EDGE ( 'NONE', *, *, #7, .F. ) ;
#171 = AXIS2_PLACEMENT_3D ( 'NONE', #174, #6, #120 ) ;
#172 = AXIS2_PLACEMENT_3D ( 'NONE', #105, #122, #144 ) ;
#173 = CALENDAR_DATE ( 2025, 27, 8 ) ;
#174 = CARTESIAN_POINT ( 'NONE',  ( 0.000000000000000000, 0.000000000000000000, 0.000000000000000000 ) ) ;
#175 = VERTEX_POINT ( 'NONE', #214 ) ;
#176 = DIRECTION ( 'NONE',  ( -1.000000000000000000, -0.000000000000000000, -0.000000000000000000 ) ) ;
#177 = CARTESIAN_POINT ( 'NONE',  ( 0.000000000000000000, 0.000000000000000000, 0.000000000000000000 ) ) ;
#178 = DIRECTION ( 'NONE',  ( 0.000000000000000000, 0.000000000000000000, 1.000000000000000000 ) ) ;
#179 = LINE ( 'NONE', #136, #233 ) ;
#180 = CARTESIAN_POINT ( 'NONE',  ( 0.000000000000000000, 0.000000000000000000, 0.000000000000000000 ) ) ;
#181 = APPROVAL_ROLE ( '' ) ;
#182 = CIRCLE ( 'NONE', #226, 0.2464999999999999969 ) ;
#183 = LINE ( 'NONE', #63, #200 ) ;
#184 = CC_DESIGN_DATE_AND_TIME_ASSIGNMENT ( #34, #220, ( #30 ) ) ;
#185 = ORIENTED_EDGE ( 'NONE', *, *, #249, .T. ) ;
#186 = EDGE_CURVE ( 'NONE', #198, #1, #212, .T. ) ;
#187 = CC_DESIGN_APPROVAL ( #95, ( #131 ) ) ;
#188 = AXIS2_PLACEMENT_3D ( 'NONE', #44, #209, #61 ) ;
#189 = CARTESIAN_POINT ( 'NONE',  ( 0.000000000000000000, 0.000000000000000000, 0.2464999999999999969 ) ) ;
#190 = DATE_AND_TIME ( #251, #52 ) ;
#191 = FACE_OUTER_BOUND ( 'NONE', #228, .T. ) ;
#192 = CC_DESIGN_PERSON_AND_ORGANIZATION_ASSIGNMENT ( #167, #35, ( #131 ) ) ;
#193 = DIRECTION ( 'NONE',  ( -1.000000000000000000, -0.000000000000000000, -0.000000000000000000 ) ) ;
#194 = ORIENTED_EDGE ( 'NONE', *, *, #249, .F. ) ;
#195 = DIRECTION ( 'NONE',  ( -1.000000000000000000, 0.000000000000000000, -0.000000000000000000 ) ) ;
#196 = DIRECTION ( 'NONE',  ( 0.000000000000000000, 0.000000000000000000, 1.000000000000000000 ) ) ;
#197 = PERSON_AND_ORGANIZATION ( #90, #59 ) ;
#198 = VERTEX_POINT ( 'NONE', #166 ) ;
#199 = MECHANICAL_CONTEXT ( 'NONE', #38, 'mechanical' ) ;
#200 = VECTOR ( 'NONE', #211, 39.37007874015748143 ) ;
#201 = PERSON_AND_ORGANIZATION ( #90, #59 ) ;
#202 = EDGE_CURVE ( 'NONE', #67, #94, #182, .T. ) ;
#203 = ORIENTED_EDGE ( 'NONE', *, *, #227, .T. ) ;
#204 = APPROVAL ( #109, 'UNSPECIFIED' ) ;
#205 = COORDINATED_UNIVERSAL_TIME_OFFSET ( 5, 0, .BEHIND. ) ;
#206 = ORIENTED_EDGE ( 'NONE', *, *, #77, .F. ) ;
#207 = CARTESIAN_POINT ( 'NONE',  ( 0.07874015748031495954, 0.000000000000000000, 0.2464999999999999969 ) ) ;
#208 = LOCAL_TIME ( 11, 0, 26.00000000000000000, #156 ) ;
#209 = DIRECTION ( 'NONE',  ( -1.000000000000000000, -0.000000000000000000, -0.000000000000000000 ) ) ;
#210 = AXIS2_PLACEMENT_3D ( 'NONE', #161, #195, #68 ) ;
#211 = DIRECTION ( 'NONE',  ( -1.000000000000000000, -0.000000000000000000, -0.000000000000000000 ) ) ;
#212 = CIRCLE ( 'NONE', #229, 0.2464999999999999969 ) ;
#213 = EDGE_LOOP ( 'NONE', ( #157, #27 ) ) ;
#214 = CARTESIAN_POINT ( 'NONE',  ( 0.07874015748031495954, 0.000000000000000000, 0.3779527559055118613 ) ) ;
#215 = AXIS2_PLACEMENT_3D ( 'NONE', #164, #82, #98 ) ;
#216 = DIRECTION ( 'NONE',  ( 0.000000000000000000, 0.000000000000000000, -1.000000000000000000 ) ) ;
#217 = LENGTH_MEASURE_WITH_UNIT ( LENGTH_MEASURE( 0.02539999999999999897 ), #240 );
#218 = ADVANCED_FACE ( 'NONE', ( #114, #65 ), #163, .F. ) ;
#219 = SECURITY_CLASSIFICATION_LEVEL ( 'unclassified' ) ;
#220 = DATE_TIME_ROLE ( 'creation_date' ) ;
#221 = UNCERTAINTY_MEASURE_WITH_UNIT (LENGTH_MEASURE( 1.000000000000000082E-05 ), #141, 'distance_accuracy_value', 'NONE');
#222 = APPROVAL_PERSON_ORGANIZATION ( #39, #204, #71 ) ;
#223 = VERTEX_POINT ( 'NONE', #103 ) ;
#224 = AXIS2_PLACEMENT_3D ( 'NONE', #46, #241, #196 ) ;
#225 = DATE_AND_TIME ( #26, #208 ) ;
#226 = AXIS2_PLACEMENT_3D ( 'NONE', #139, #193, #81 ) ;
#227 = EDGE_CURVE ( 'NONE', #175, #53, #160, .T. ) ;
#228 = EDGE_LOOP ( 'NONE', ( #203, #108, #206, #153 ) ) ;
#229 = AXIS2_PLACEMENT_3D ( 'NONE', #177, #176, #31 ) ;
#230 = CARTESIAN_POINT ( 'NONE',  ( 0.07874015748031495954, 0.000000000000000000, 0.000000000000000000 ) ) ;
#231 = LOCAL_TIME ( 11, 0, 26.00000000000000000, #205 ) ;
#232 = DIRECTION ( 'NONE',  ( -1.000000000000000000, -0.000000000000000000, -0.000000000000000000 ) ) ;
#233 = VECTOR ( 'NONE', #2, 39.37007874015748143 ) ;
#234 = VERTEX_POINT ( 'NONE', #238 ) ;
#235 = CC_DESIGN_PERSON_AND_ORGANIZATION_ASSIGNMENT ( #201, #20, ( #30 ) ) ;
#236 = DIRECTION ( 'NONE',  ( 1.000000000000000000, 0.000000000000000000, 0.000000000000000000 ) ) ;
#237 = AXIS2_PLACEMENT_3D ( 'NONE', #66, #8, #124 ) ;
#238 = CARTESIAN_POINT ( 'NONE',  ( -3.032960542342103792E-32, 4.628586327486059186E-17, -0.3779527559055118058 ) ) ;
#239 = ORIENTED_EDGE ( 'NONE', *, *, #123, .T. ) ;
#240 =( LENGTH_UNIT ( ) NAMED_UNIT ( * ) SI_UNIT ( $, .METRE. ) );
#241 = DIRECTION ( 'NONE',  ( -1.000000000000000000, -0.000000000000000000, -0.000000000000000000 ) ) ;
#242 = PERSON_AND_ORGANIZATION_ROLE ( 'classification_officer' ) ;
#243 = SECURITY_CLASSIFICATION ( '', '', #219 ) ;
#244 = FACE_OUTER_BOUND ( 'NONE', #48, .T. ) ;
#245 = APPROVAL_STATUS ( 'not_yet_approved' ) ;
#246 = CC_DESIGN_PERSON_AND_ORGANIZATION_ASSIGNMENT ( #197, #169, ( #131 ) ) ;
#247 = ORIENTED_EDGE ( 'NONE', *, *, #23, .F. ) ;
#248 = AXIS2_PLACEMENT_3D ( 'NONE', #79, #143, #50 ) ;
#249 = EDGE_CURVE ( 'NONE', #1, #198, #78, .T. ) ;
#250 = COORDINATED_UNIVERSAL_TIME_OFFSET ( 5, 0, .BEHIND. ) ;
#251 = CALENDAR_DATE ( 2025, 27, 8 ) ;
#252 = ORIENTED_EDGE ( 'NONE', *, *, #88, .T. ) ;
ENDSEC;
END-ISO-10303-21;
